Lulu (Denpa Onna to Seishun Otoko) Guitar Tab

Submitted: Nov 04, 2013 by corntastic

3.666665
Average: 3.7 (3 votes)
Download | Listen
Game: Denpa Onna to Seishun Otoko
Composer(s): Franz Maxwell I.
Style: Transcription

AutoScroll: Slow | Medium | Fast
Lulu
Denpa Onna to Seishun Otoko
Tica·α, Etsuko Yakushimaru
corntastic
1 11 2013


e-------------------------------------------------------------------------
B--6--6--8--8--6----6--6--8--8--6----6--6--6-----8--6--4-----6s4-4--------
G---------------------------------------------7-----------7---------------
D-------------------------------------------------------------------------
A-------------------------------------------------------------------------
E-------------------------------------------------------------------------

e-------------------6-----------------------------------------------------
B--------4----4--4-----8--6--4--4-----------------------------------------
G--5--7----------------------------7--------------------------------------
D-------------------------------------------------------------------------
A-------------------------------------------------------------------------
E-------------------------------------------------------------------------

e-------------------------------------------------------------------------
B--6-----6-----4--8--6--4-----------------------------------------6-------
G-----7-----7--------------7----5-------5--7-7---------8----7--8----------
D------------------------------------8------------8-----------------------
A-------------------------------------------------------------------------
E-------------------------------------------------------------------------

e-------------------------------------------------------------------------
B--6----8--------8--6--4--6-------------4--4----------4--6----8--6--------
G----------------------------------7------------7--7----------------------
D-------------------------------------------------------------------------
A-------------------------------------------------------------------------
E-------------------------------------------------------------------------

e----------------6--5-----------------------------------------------------
B--6----8--------------8--6s4-3------8----8--8--8--8--8--6.---6pb8r6------
G---------------------------------5---------------------------------------
D-------------------------------------------------------------------------
A-------------------------------------------------------------------------
E-------------------------------------------------------------------------

e-------------------------------------------------------------------------
B--6--6--8--8--6-----6--6--8--8--6----------------------------------------
G-------------------------------------------------------------------------
D-------------------------------------------------------------------------
A-------------------------------------------------------------------------
E-------------------------------------------------------------------------

______________________________________________________________________________________


e-------------------------------------------------------------------------------
B--6--6--------4--8--6--4----------------------------------------------6----6---
G--------7--7--------------7----5-----------5--7--7--------8--8--7--8-----------
D----------------------------------------8-----------8--8-----------------------
A-------------------------------------------------------------------------------
E-------------------------------------------------------------------------------

e-------------------------------------------------------------------------------
B--6--6--------4--8--6--4-------------------------------------------------------
G--------7--7--------------7--7--5----------5--7-------8--8--7--8--7----5-------
D----------------------------------------8----------8------------------------8--
A-------------------------------------------------------------------------------
E-------------------------------------------------------------------------------

e-------------------------------------------------------------------------------
B--6-----------6--8--6----4--4--------------------------------------------------
G-----------7-------------------7----5----7------7-----7--8--7--5--5------------
D---------------------------------------------------8-----------------8--8--7---
A-------------------------------------------------------------------------------
E------------------------------------------------------------------------------- x2

______________________________________________________________________________________


e-------------------------------------------------------------------------
B--6--6--6--8--6-------6--6--6--8--------6--6--6-----8--6--4-----6s4-4----
G-------------------7-----------------------------7-----------7-----------
D-------------------------------------------------------------------------
A-------------------------------------------------------------------------
E-------------------------------------------------------------------------

e-------------------6-----------------------------------------------------
B--------4----4--4-----8--6--4--4----------------------------------------
G--5--7----------------------------7--------------------------------------
D-------------------------------------------------------------------------
A-------------------------------------------------------------------------
E-------------------------------------------------------------------------

e-------------------------------------------------------------------------
B--6-----6-----4--8--6--4-----------------------------------------6------- 
G-----7-----7--------------7----5-------5--7-7---------8----7--8----------
D------------------------------------8------------8-----------------------
A-------------------------------------------------------------------------
E-------------------------------------------------------------------------

e-------------------------------------------------------------------------
B--6----8--------8--6--4--6--------------4--4----------4--6----8--6-------
G----------------------------------7--7----------7--7---------------------
D-------------------------------------------------------------------------
A-------------------------------------------------------------------------
E-------------------------------------------------------------------------

e----------------6--5-----------------------------------------------------
B--6----8--------------8--6s4-3------8----8--8--8--8--8--6.---6pb8r6------
G---------------------------------5---------------------------------------
D-------------------------------------------------------------------------
A-------------------------------------------------------------------------
E-------------------------------------------------------------------------

e-------------------------------------------------------------------------
B--6----6--6--6-----------------------------------------------------------
G-------------------------------------------------------------------------
D-------------------------------------------------------------------------
A-------------------------------------------------------------------------
E-------------------------------------------------------------------------

______________________________________________________________________________________


e-------------------------------------------------------------------------------
B--6--6--------4--8--6--4----------------------------------------------6----6---
G--------7--7--------------7--7--5-----------5--7--7-------8--8--7--8-----------
D-----------------------------------------8-------------8-----------------------
A-------------------------------------------------------------------------------
E-------------------------------------------------------------------------------

e-------------------------------------------------------------------------------
B--6--6--------4--8--6--4-------------------------------------------------------
G--------7--7--------------7----5----------5--7-------8--8--7--8--7----5--------
D---------------------------------------8----------8------------------------8---
A-------------------------------------------------------------------------------
E-------------------------------------------------------------------------------

e-------------------------------------------------------------------------------
B--6--6--------4--8--6--4----------------------------------------------6----6---
G--------7--7--------------7----5-----------5--7--7--------8--8--7--8-----------
D----------------------------------------8-----------8--8-----------------------
A-------------------------------------------------------------------------------
E-------------------------------------------------------------------------------

e-------------------------------------------------------------------------------
B--6--6--------4--8--6--4-------------------------------------------------------
G--------7--7--------------7--7--5----------5--7-------8--8--7--8--7----5-------
D----------------------------------------8----------8------------------------8--
A-------------------------------------------------------------------------------
E-------------------------------------------------------------------------------

e-------------------------------------------------------------------------
B-------------------------------------------------------------------------
G-----5--7--7-------8--8--7--8--7----5------------------------------------
D--8-------------8------------------------8-------------------------------
A-------------------------------------------------------------------------
E-------------------------------------------------------------------------
Login or Register to remove this ad.