Ads

Old King Allant (Demon's Souls) Guitar Tab

Submitted: Mar 27, 2017 by FingerstyleGaming

0
Download | Listen
Game: Demon's Souls
Composer(s): Shunsuke Kida
Style: Arrangement, Fingerstyle

AutoScroll: Slow | Medium | Fast
Old King Allant
from Demon's Souls
Composed by Shunsuke Kida
Arranged by FingerstyleGaming

Tempo ~ 60

   Q    Q    H       Q    Q    H       Q    Q    Q    Q      H     H       W
E|-----------------|-----------------|---------------------|-------------|--------|
B|------3----4-----|------3----2-----|------3----4----6----|-4-----3-----|-2------|
G|------2----3-----|------2----3-----|------2----3----L----|-3-----2-----|-3------|
D|------3----------|------3----5-----|------3----5----L----|-------2-----|-5------|
A|-----------------|-----------------|---------------------|-------0-----|-0------|
D|-0---------5-----|-0---------2-----|-0-------------------|-5-----------|--------|


   Q    Q    H       Q    Q    H       Q    Q    Q    Q      H     Q    Q      W
E|-----------------|-----------------|---------------------|-----------------|-4------|
B|-3---------------|-----------------|---------------------|-----------------|-5------|
G|-2---------------|-----------------|-2----L----1----L----|-3-----L----5----|-4------|
D|-----------------|-----------------|---------------------|-----------------|--------|
A|------0----1-----|------0----------|------0----1----3----|-1-----0----L----|--------|
D|-----------------|-----------6-----|---------------------|-----------------|-6------|


   H     H       S  S  S  S  S  S  S  S  S  S  S  S  S  S  S  T T   S  S  S  S  S  S  S  S  S  S  S  S  S  S  S  S
E|-5-----------|--------------------------------------------------|-------------------------------------------------|
B|-------------|----------------------------------------------0---|-0-----------------------------------0-----------|
G|-------6-----|-1-----------1-----------1-----------1----------5-|-------------------------2-----------------------|
D|-------------|-------3-----------3-----------3-----------3------|-------3-----3-----3-----------3-----------3-----|
A|-0-----------|----5-----5-----5-----5-----5-----5-----5-----5---|----5-----5-----5-----5-----5-----5-----5-----5--|
D|-------------|--------------------------------------------------|-6-----------------------0-----------------------|
   

   S  S  S  S  S  S  S  S  S  S  S  S  S  S  S  S    S  S  S  S  S  S  S  S  S  S  S  S  S  S  S  S
E|-------------------------------------------------|-------------------------------------------------|
B|-------------------------------------------------|-------------------------0-----------3-----------|
G|-5-----------------------4-----------------------|-6-----------------------------------------------|
D|-------7-----7-----7-----------7-----7-----7-----|-------8-----8-----8-----------4-----------4-----|
A|----7-----7-----7-----7-----6-----6-----6-----6--|----8-----8-----8-----8-----5-----5-----2-----2--|
D|-7-----------------------7-----------------------|-8-----------------------0-----------0-----------|


   S  S  S  S  S  S  S  S  S  S  S  S  S  S  S  S    S  S  S  S  S  S  S  S  S  S  S  S  S  S  S  S
E|-0-----------------------------------2-----------|-0-----------------------------------------------|
B|-1-----------------------4-----------------------|-0-----------------------------------------------|
G|-------------------------------------------------|-0-----------------------------------------------|
D|-------------------------------------------------|-------------------------2-----------0-----------|
A|-3-----------3-----------3-----------2-----------|-------------2--------2--------2-----------2-----|
D|----2--4--2-----2--4--2-----1--4--1-----1--4--1--|-2--2--5--2-----2--5--------5-----5-----5-----5--|


   S  S  S  S  S  S  S  S  S  S  S  S  S  S  S  S    S  S  S  S  S  S  S  S  S  S  S  S  S  S  S  S
E|-------------------------------------------------|-------------------------0-----------------------|
B|-1-----------1-----------1-----------0-----------|-0-----------0--------0--------0-----3-----0-----|
G|-------------------------------------------------|-------0-----------0--------0-----0-----0-----0--|
D|----2--4--2-----2--4--2-----1--4--1-----2--4--2--|----2-----2-----2--------------------0-----------|
A|-3-----------3-----------3-----------2-----------|----------------------2--------2-----------2-----|
D|-------------------------------------------------|-2--2--5--2--2--2--5-----5--5-----5-----5-----5--|


                     |----------------6---------------|
   S  S  S  S  S  S  S  S  S  S  S  S  S  S  S  S  S  S  E  x2
E|----------------------------------------------0--3--6------|
B|-2-----------------------------------------2---------------|
G|----3--0-----------------------------0--3------------------|
D|----------2-----------------------2------------------------|
A|-------------4--1-----------1--4---------------------------|
D|-2-----------------5--2--5---------------------------------|
Login or Register to remove this ad.