Ads

Maiden Astraea (Demon's Souls) Guitar Tab

Submitted: May 19, 2017 by FingerstyleGaming

5
Average: 5 (1 vote)
Download | Listen
Game: Demon's Souls
Composer(s): Shunsuke Kida
Style: Arrangement, Fingerstyle

AutoScroll: Slow | Medium | Fast
Maiden Astraea
From Demon's Souls
Composed by Shunsuke Kida
Arranged By FingerstyleGaming

      E  E  E  E  E  E  E  E     E  E  E  E  E  E  E  E   
E||------0-----0-----0-----0--|-----0-----0-----0-----0--|
B||---------------------------|--------------------------|
G||*--------------------0-----|--2-----------0-----------|
D||*--------2-----4-----------|--------4-----------0-----|
A||---------------------------|--------------------------|
C||---4-----------------------|--------------------------|


  E  E  E  E  E  E  E  E     E  E  E  E  E  E  E  E   
-----0-----0-----0-----0--|-----0-----0-----0-----0--|
--------------------------|--------------------------|
--------------0-----2-----|--------0-----------------|
--2-----4-----------------|--4-----------0-----2-----|
--------------------------|--------------------------|
--------------------------|--------------------------|


  E  E  E  E  E  E  E  E     E  E  E  E  E  E  E  E   
-----0-----0-----0-----0--|-----0-----0-----0-----0--|
--------------------------|--------------------------|
--------0-----2-----------|--0-----------------------|
--4-----------------4-----|--------0-----2-----4-----|
--------------------------|--------------------------|
--2-----------------------|--------------------------|


  E  E  E  E  E  E  E  E     E  E  E  E  E  E  E  E   
-----0-----0-----0-----0--|-----0-----0-----0-----0--|
--------------------------|--------------------------|
--0-----2-----------0-----|--------------------0-----|
--------------4-----------|--0-----2-----4-----------|
--------------------------|--------------------------|
--------------------------|--------------------------|


  E  E  E  E  E  E  E  E     E  E  E  E  E  E  E  E   
-----0-----0-----0-----0--|--------0-----2-----3-----|
--------------------------|-----0-----0-----0-----0--|
--2-----------0-----------|--0-----------------------|
--------4-----------0-----|--------------------------|
--------------------------|--------------------------|
--0-----------------------|--0-----------------------|


  E  E  E  E  E  E  E  E     E  E  E  E  E  E  E  E   
--5-----2-----3-----------|--0-----2-----3-----5-----|
-----0-----0--------3-----|-----0-----0-----0-----0--|
-----------------4-----4--|--------------------------|
--------------------------|--------------------------|
--------------------------|--2-----------------------|
--------------------------|--------------------------|


  E  E  E  E  E  E  E  E     E  E  E  E  E  E  E  E   
--2-----3-----------0-----|--2-----3-----5-----2-----|
-----0--------3--------0--|-----0-----0-----0-----0--|
-----------4-----4--------|--------------------------|
--------------------------|--------------------------|
--------------------------|--------------------------|
--------------------------|--------------------------|


  E  E  E  E  E  E  E  E     E  E  E  E  E  E  E  E   
--3-----------0-----2-----|--3-----5-----2-----3-----|
--------3--------0-----0--|-----0-----0-----0--------|
-----4-----4--------------|-----------------------4--|
--------------------------|--------------------------|
--------------------------|--0-----------------------|
--------------------------|--------------------------|


  E  E  E  E  E  E  E  E     E  E  E  E  E  E  E  E   
--------0-----2-----3-----|--5-----2-----3-----------|
--3--------0-----0-----0--|-----0-----0-----0-----0--|
-----4--------------------|--------------------7-----|
--------------------------|--------------------------|
--------------------------|--------------------------|
--------------------------|--------------------------|


  E  E  E  E  E  E  E  E     E  E  E  E  E  E  E  E   
-----0-----0-----0-----0--|-----0-----0-----0-----0--|
--------------------------|--------------------------|
--------------------0-----|--------------0-----------|
--------------------------|--7-----------------0-----|
--------7-----9-----------|--------9-----------------|
--7-----------------------|--------------------------|


  E  E  E  E  E  E  E  E     E  E  E  E  E  E  E  E   
-----0-----0-----0-----0--|-----0-----0-----0-----0--|
--------------------------|--------------------------|
--------------0-----------|--------0-----------------|
--------------------7-----|--------------0-----------|
--7-----9-----------------|--9-----------------7-----|
--------------------------|--------------------------|


  E  E  E  E  E  E  E  E     E  E  E  E  E  E  E  E   
-----0-----0-----0-----0--|-----0-----0-----0-----0--|
--------------------------|--------------------------|
--------0-----------------|--0-----------------------|
--------------7-----------|--------0-----------------|
--9-----------------9-----|--------------7-----9-----|
--------------------------|--------------------------|


  E  E  E  E  E  E  E  E     E  E  E  E  E  E  E  E   
-----0-----0-----0-----0--|-----0-----0-----0-----0--|
--------------------------|--------------------------|
--0-----------------0-----|--------------------0-----|
--------7-----------------|--0-----------------------|
--------------9-----------|--------7-----9-----------|
--------------------------|--------------------------|


  E  E  E  E  E  E  E  E     E  E  E  E  E  E  E  E   
-----0-----0-----0-----0--|--------0-----2-----3-----|
--------------------------|-----0-----0-----0-----0--|
--------------0-----------|--0-----------------------|
--7-----------------0-----|--------------------------|
--------9-----------------|--2-----------------------|
--------------------------|--------------------------|


  E  E  E  E  E  E  E  E     E  E  E  E  E  E  E  E   
--5-----2-----3-----------|--0-----2-----3-----5-----|
-----0-----0--------3-----|-----0-----0-----0-----0--|
-----------------4-----4--|--------------------------|
--------------------------|--------------------------|
--------------------------|--2-----------------------|
--------------------------|--------------------------|


  E  E  E  E  E  E  E  E     E  E  E  E  E  E  E  E   
--2-----3-----------0-----|--2-----3-----5-----2-----|
-----0--------3--------0--|-----0-----0-----0-----0--|
-----------4-----4--------|--------------------------|
--------------------------|--------------------------|
--------------------------|--------------------------|
--------------------------|--------------------------|


  E  E  E  E  E  E  E  E     E  E  E  E  E  E  E  E   
--3-----------0-----2-----|--3-----5-----2-----3-----|
-----0--3--------0-----0--|-----0--------------------|
-----------4--------------|-----------4-----4-----4--|
--------------------------|--------------------------|
--------------------------|--------------------------|
--------------------------|--------------------------|


  E  E  E  E  E  E  E  E     E  E  E  E  E  E  E  E     
--------0-----2-----3-----|--5-----2-----3------------||
--3--------0-----0-----0--|-----0-----0--------3------||
-----4--------------------|-----------------4-----4--*||
--------------------------|--------------------------*||
--------------------------|---------------------------||
--------------------------|---------------------------||
Login or Register to remove this ad.

1 comment on Maiden Astraea

Nice one. Reminds me of

Nice one. Reminds me of Albeniz's Asturias in a way