Ads

You Can Always Come Home (Deltarune) Guitar Tab

Submitted: Jul 11, 2021 by JordanVS (Last updated: Jul 20, 2021)

0
Download | Listen
Game: Deltarune
Composer(s): Toby Fox
Style: Arrangement, Fingerstyle

AutoScroll: Slow | Medium | Fast
You Can Always Come Home                                            
Deltarune
Toby Fox
JordanVS

Tempo: 105 ~ 4/4 - Triplet 8th feel


     E  E  E  Q    E  E  E     E  E  E  Q    E  E  E     E  E  E  Q    E  E  E     E  E   E   Q    E  E  E   
E||-------------------------|-------------------------|-------------------------|-----5p--4p--0-------------|
B||-----------0----------0--|-----------0----------0--|-----------0----------0--|--L------------------0-----|
G||--------2----------2-----|--------2----------2-----|--------2----------2-----|------------------2-----2--|
D||-----2----------2--------|-----2----------2--------|-----2----------2--------|---------------------------|
A||--0----------------------|--4----------------------|--3----------------------|---------------------------|
E||-------------------------|-------------------------|-------------------------|---------------------------|


                                                                                         ^            
  E  E  E  Q    E  E  E     E  E  E  Q    E  E  E     E  E  E  Q    E  E  E     E  E  E  E  H         
-------------------------|-------------------------|-------------------------|-----------0--L--------|
-----------0----------0--|-----------0----------0--|-----------0----------0--|--L-----0--0--L--------|
--------2----------2-----|--------2----------2-----|--------2----------2-----|-----2-----2--L--------|
-----2----------2--------|-----2----------2--------|-----2----------2--------|-----------------------|
--0----------------------|--4----------------------|--5----------------------|-----------------------|
-------------------------|-------------------------|-------------------------|-----------------------|


    >          >                                        >           >              >                        
    Q    E  E  E  E  E  E     E  E  E  Q    E  E  E     E  E  E  E  E  E  E  E     Q    E  E  E  E   E  E   
|--------------0-----------|-------------------------|--------------0-----------|--------------------------|
|-----------0-----------0--|--L--------0----------0--|-----------0-----------0--|----------0---------------|
|*-------2-----------2-----|--------2----------2-----|--2-----2-----------2-----|-------2-----0------------|
|*--2-------------2--------|-----2----------2--------|-----2-----------2--------|--2-------------2p--0-----|
|---0----------------------|--4----------------------|--3-----------------------|-----------------------2--|
|--------------------------|-------------------------|--------------------------|--------------------------|

                                                                               1.
  >          >              >                >        >                           >        ^                  
  Q    E  E  E  E  E  E     E  E  E  Q    E  E  E     E  E  E  E  E  E   E  E     E  E  E  E  E  E   E  E     
-------------------------|--0----------------2-----|--0------------------------|-----------0----------------||
----------0-----------0--|-----------0----------0--|-----------0--L------------|--------0--0----------------||
-------2-----2-----2-----|--------2----------2-----|--------2--------2p--1-----|--2--------2--L--2p--1-----*||
--2-------------2--------|-----2----------2--------|-----2--------2---------2--|-----2------------------2--*||
--0----------------------|--4----------------------|--5------------------------|--0-------------------------||
-------------------------|-------------------------|---------------------------|----------------------------||

2.
  >        ^                                                                           
  E  E  E  E  Q      E  E      E   E  E  E  E   E  E   E     E  E  E  E  Q      E  E   
-----------0--L----7g9--7--|-------------0--9--10--7------|--5----------------7g9--7--|
--------0--0--L------------|--10----------------------10--|--5--------7---------------|
--2--------2--L------------|----------9----------------9--|--------6------------------|
-----2---------------------|------11------------7--9------|-----7---------------------|
--0------------------------|---9------------7-------------|--5------------------------|
---------------------------|------------------------------|---------------------------|


   E   E  E  E  E   E  E   E      Q     E   E   E   E    E   E      E   E  E  E  E   E  E   E   
-------------0--9--10--7--12--|--12----17--16--12---------------|-------------0--9--10--7------|
--10--------------------------|--10----------------10h--12--10--|--10----------------------10--|
----------9----------------9--|---------------------------------|----------9----------------9--|
------11------------7--9------|---0-------------L---0-----------|------11------------7--9------|
---9------------7-------------|---------------------------------|---9------------7-------------|
------------------------------|---------------------------------|------------------------------|


                                                                        ^             
   E  E  E  E  E  E   E  E     E  E  E   E   E  E  Q        E   E   E   E   H         
---------------9--7------9--|--7--------12---L-----9----|--10--12--14--12---L--------|
--10--------7--------10-----|---------------------------|--------------12---L--------|
---------8------------------|--9---------9--------------|----------------------------|
------7---------------------|-----7--9-------------7----|---0------------------------|
---6--------------6---L-----|--7----------------7-------|----------------------------|
----------------------------|---------------------------|--------------12---L--------|


  Q    Q    E  E    E  E     E  E  E  E  E   E  E  E     E  E  E  E  Q      E  E   
------------------7g9--7--|--5--------0--9--10--7--5--|--5----------------7g9--7--|
-------x----x--x----x-----|--------2---------------5--|--5--------7---------------|
-------x----x--x----x-----|-----2---------------------|--------6------------------|
--------------------------|------------------7--9-----|-----7---------------------|
--------------------------|---------------------------|--5------------------------|
--------------------------|--2-----------0------------|---------------------------|


  E  E  E  E  E   E  E   E      Q     E   E   E  E   E  E     E  E  E  E  E   E  E   E   
--5--------0--9--10--7--12--|--12----17--16--12--5h--7--5--|--5--------0--9--10--7------|
--------2-------------------|--10--------------------------|--------2---------------10--|
-----2-------------------9--|------------------------------|-----2-------------------9--|
------------------7--9------|---0-------------L--0---------|------------------7--9------|
----------------------------|------------------------------|----------------------------|
--2-----------0-------------|------------------------------|--2-----------0-------------|


                                                                        ^             
   E  E  E  E  E  E   E  E     E  E  E   E   E  E  Q        E   E   E   E   H         
---------------9--7------9--|--7--------12---L-----9----|--10--12--14--12---L--------|
--10--------7--------10-----|---------------------------|--------------12---L--------|
---------8------------------|--9---------9--------------|----------------------------|
------7---------------------|-----7--9-------------7----|---0------------------------|
---6--------------6---L-----|-------------------7-------|----------------------------|
----------------------------|--0------------------------|--------------12---L--------|

                           *Da capo
                                            ^        
  Q    E   E   E  E  E  E     E  E  E  Q    Q.       
-------5p--4p--0-----------|-----------------------||
---------------------0-----|-----------0-----------||
------------------2-----2--|--------2-------2------||
---------------------------|-----2----------2------||
---------------------------|--0-------------0------||
---------------------------|-----------------------||




Duration Legend
---------------
W - whole
H - half
Q - quarter
E - 8th
S - 16th
T - 32nd
X - 64th
. - note dotted
|-n-|  - n-tuplets


Tablature Legend
----------------
L - tied note
x - dead note
g - grace note
(n) - ghost note
> - accentuded note
NH - natural harmonic
AH - artificial harmonic
TH - tapped harmonic
SH - semi harmonic
PH - pitch harmonic
h - hammer on
p - pull off
~ - vibrato
W - wide vibrato
tr - trill
T - tapping
S - slap
P - pop
< - fade in
^ - brush up
v - brush down
Login or Register to remove this ad.