Ads

The World Revolving (Jevil Fight) (Deltarune) Guitar Tab

Submitted: Nov 30, 2018 by 3dwardify (Last updated: Dec 18, 2018)

5
Average: 5 (2 votes)
Download | No audio :(
Game: Deltarune
Composer(s): Toby Fox
Style: Fingerstyle

AutoScroll: Slow | Medium | Fast
I have written this guitar tab as a text alternative to the video below. 
https://www.youtube.com/watch?v=yq7Ujif0PZw

Gtr I (E A D G B E) - 'Standard Tuning'

  Gtr I
  
|-----------------|-----------------|-------|-2-0-----|
|---0---0---0---0-|---0---0---0---0-|-0-----|-----0-2-|
|-1-------1-------|-1-------1-------|-----0-|---------|
|-----1-------1---|-----1-------1---|---2---|---------|
|-----------------|-----------------|-------|---------| 
|-----------------|-----------------|-------|---------|


|-----------------|-----------------|-------|---0-----|
|---0---0---0---0-|---0---0---0---0-|-0-----|-4---4-2-|
|---------1-------|-1-------1-------|-----1-|---------|
|-1---1-------1---|-----1-------1---|---2---|---------|
|-----------------|-----------------|-------|---------|
|-----------------|-----------------|-------|---------|


|-----------------|-----------------|-------|-2-0-----|
|---0---0---0---0-|---0---0---0---0-|-0-----|-----0-2-|
|-1-------1-------|-1-------1-------|-----0-|---------|
|-----1-------1---|-----1-------1---|---2---|---------|
|-----------------|-----------------|-------|---------|
|-----------------|-----------------|-------|---------|


|-----------------|-----------------|-------|-2-0---0-|---|
|---0---0---0---0-|---0---0---0---0-|-0-2---|-----4---|-0-|
|---------1-------|-1-------1-------|-----1-|---------|---|
|-1---1-------1---|-----1-------1---|-------|---------|---|
|-----------------|-----------------|-------|---------|---|
|-----------------|-----------------|-------|---------|---|


|-------2--------|-----------|-------2--2-4-|-2-0-----|-------|
|-0---0---0---0--|-0---------|-0---0--------|-----4-0-|-2---2-|
|---3-------3----|---3-1---3-|---3----------|---------|---1---|
|----------------|-------4---|--------------|---------|-------|
|----------------|-----------|--------------|---------|-------|
|----------------|-----------|--------------|---------|-------|

  
|---0-----|---|-------2-------|-----------|-------2--2-4-|
|-4---4-2-|-0-|-0---0---0---0-|-0---------|-0---0--------|
|---------|---|---3-------3---|---3-1---3-|---3----------|
|---------|---|---------------|-------4---|--------------|
|---------|---|---------------|-----------|--------------|
|---------|---|---------------|-----------|--------------|

  
|-2-0-----|-------|---0-----|-------2-------|-4-------6-------|
|-----4-0-|-2---2-|-4---4-2-|-0---0---0---0-|---0---0---0---0-|
|---------|---1---|---------|---3-------3---|-----3-------3---|
|---------|-------|---------|---------------|-----------------|
|---------|-------|---------|---------------|-----------------|
|---------|-------|---------|---------------|-----------------|


|-7-6--4-2---------|-1-------2-------|-4-2-0---------0-|--------------|
|----------4-0---0-|---0---0---0---0-|-------4-2-0-2---|-4-0---0-4-0--|
|--------------3---|-----3-------3---|-----------------|--------------|
|------------------|-----------------|-----------------|-----4--------|
|------------------|-----------------|-----------------|--------------|
|------------------|-----------------|-----------------|--------------|


|-------------0---|---0-----|-------2-------|-4-------6-------|
|-2-------2-------|-4---4-2-|-0---0---0---0-|---0---0---0---0-|
|---1---1---------|---------|---3-------3---|-----3-------3---|
|-----2-----2---2-|---------|---------------|-----------------|
|-----------------|---------|---------------|-----------------|
|-----------------|---------|---------------|-----------------|


|-7-6--4-2---------|-1-------2-------|-4-2-0---------0-|--------------|
|----------4-0---0-|---0---0---0---0-|-------4-2-0-2---|-4-0---0-4-0--|
|--------------3---|-----3-------3---|-----------------|--------------|
|------------------|-----------------|-----------------|-----4--------|
|------------------|-----------------|-----------------|--------------|
|------------------|-----------------|-----------------|--------------|


|-------------0---|---0-----|---|-------------|-----------|-----|
|-2-------2-------|-4---4-2-|-0-|-0-----------|-----------|-----|
|---1---1---------|---------|---|---2-0-------|-----------|-4---|
|-----2-----2---2-|---------|---|-------4-2-1-|-1-2-1---4-|-----|
|-----------------|---------|---|-------------|-------4---|-----|
|-----------------|---------|---|-------------|-----------|-----|


|-------2---|------|---------|---|-------------|-----------|---|
|-----0---0-|-0--0-|---0-2---|-0-|-0-----------|-----------|---|
|-4-3-------|------|-3-----3-|---|---2-0-------|-----------|-4-|
|-----------|------|---------|---|-------4-2-1-|-1-2-1---4-|---|
|-----------|------|---------|---|-------------|-------4---|---|
|-----------|------|---------|---|-------------|-----------|---|

  
|-------2-----|-----|---------*|------|---0-----|------|---0------||
|-----0---0-0-|-0---|---0-2---*|-0----|-4---2-0-|-0----|-4---2-0-o||
|-4-3---------|-----|-3-----3-*|------|---------|------|----------||  4x 
|-------------|-----|---------*|----4-|---------|----4-|----------||
|-------------|-----|---------*|------|---------|------|---------o||
|-------------|-----|---------*|------|---------|------|----------||


|-----|---0-----*|
|-0---|-4---2-0-*|
|-----|---------*|
|---4-|---------*|
|-----|---------*|
|-----|---------*|
Login or Register to remove this ad.

1 comment on The World Revolving (Jevil Fight)

At first glance I didn't

5

At first glance I didn't think this tab would have too much to offer.
However, you proved me wrong. This is amazing. Even if it's just the bare bones of the song, it's still very fulfilling to play.

CHAOS, CHAOS!