Ads

Vs. Susie (Deltarune) Guitar Tab

Submitted: Jul 16, 2022 by JordanVS (Last updated: Jul 20, 2022)

0
Download | Listen
Game: Deltarune
Composer(s): Toby Fox
Style: Arrangement, Fingerstyle

AutoScroll: Slow | Medium | Fast
Vs. Susie                                                   
Deltarune
Toby Fox
JordanVS

*Capo on the 6th fret
Tempo: 148 ~ 4/4

Download Link: https://www.mediafire.com/file/7c0enku0xteknrz/Vs_Susie_-_Deltarune.zip/...


     E  E  E  E  E  E  E  E     E  E  E  E  E  E  E  E     E  E  E  E  E  E  E  E   
E||--------------------------|--------------------------|--------------------------|
B||--------------------------|--------------------------|--------------------------|
G||--------------------------|--------------------------|--------------------------|
D||--------------------------|--------------------------|--------------------------|
A||--------------0--1--0-----|--------------0--1--0-----|--------------0--1--0-----|
E||--0--0--3--0-----------3--|--0--0--3--0-----------3--|--0--0--3--0-----------3--|


  E  E  E  E  E  E  E  E     E  E  E  E  E  E  E  E     E  E  E  E  E  E  E  E     E  E  E  E  E  E  E  E   
--------------------------|--------------------------|--------------------------|--------------------------|
--------------------------|--------------------------|--------------------------|--------------------------|
--------------------------|--------------------------|--------------------------|--------------------------|
--------------------------|--------------------------|--------------------------|--0-----------------------|
--------------0--1--0-----|--2-----------0--1--0-----|--1-----------0--1--0-----|--------------0--1--0-----|
--0--0--3--0-----------3--|--0--0--3--0-----------3--|--0--0--3--0-----------3--|--0--0--3--0-----------3--|


  E  E  E  E  E  E  E  E     E  E  E  E  E  E  E  E     E  E  E  E  E  E  E  E     E  E  E  E  E  E  E  E   
--------------------------|--------------------------|--------------------------|--------------------------|
--------------------------|--------------------------|--------------------------|--------------------------|
--------------------------|--------------------------|--------------------------|--------------------------|
--------------------------|--------------------------|--4-----------2-----------|--1-----------------------|
--------------0--1--0-----|--2-----------0--1--0-----|--------------0--1--0-----|--------------0--1--0-----|
--0--0--3--0-----------3--|--0--0--3--0-----------3--|--0--0--3--0-----------3--|--0--0--3--0-----------3--|


                                                        PM PM PM PM PM PM                                     
  E  E  E  E  E  E  E  E     E  E  E  E  E  E  E  E     E  E  E  E  E  E  Q          E  E  E  E  E  E  E  E   
--------------------------|--------------------------|--------------------------||---------------------------|
--------------------------|--------------------------|--------------------------||---0-----------L-----------|
--------------------------|--------------------------|--------------------------||*--------------------------|
--------------------------|--------------------------|--------5-----7--8--7\----||*--------------------------|
--4-----------0--1--0-----|--------------0--1--0-----|--7--7-----7--------------||---2-----------0--1--0-----|
--0--0--3--0-----------3--|--0--0--3--0-----------3--|--------------------------||---0--0--3--0-----------3--|


  E  E  E  E  E  E  E  E     E  E  E  E  E  E  E  E     E  E  E  E  E  E  E  E     E  E  E  E  E  E  E  E   
--------------------------|--------------------------|--------------------------|--------------------------|
--------------------------|--3-----------------------|--------------------------|--0-----------L-----------|
--3-----------L-----------|--------------------------|--------------------------|--------------------------|
--------------------------|--0-----------------------|--------------------------|--------------------------|
--1-----------0--1--0-----|--------------0--1--0-----|--------------0--1--0-----|--2-----------0--1--0-----|
--0--0--3--0-----------3--|--0--0--3--0-----------3--|--0--0--3--0-----------3--|--0--0--3--0-----------3--|


  E  E  E  E  E  E  E  E     E  E  E  E  E  E  E  E     E  E  E  E  E  E  E  E     E  E  E  E  E  E  E  E   
--2-----------0-----------|--------------------------|--------------------------|--------------------------|
--------------------------|--4-----------------------|--------------------------|--------------------------|
--------------------------|--------------------------|--6-----------L-----------|--------------------------|
--4-----------2-----------|--1-----------------------|--------------------------|--------------------------|
--------------0--1--0-----|--------------0--1--0-----|--4-----------0--1--0-----|--------------0--1--0-----|
--0--0--3--0-----------3--|--0--0--3--0-----------3--|--0--0--3--0-----------3--|--0--0--3--0-----------3--|


  E  E  E  E  E  E  E  E       E  E  E  E  E  E  E  E       Q    E  E  E   E   Q       Q    E  E  E  E  Q     
---------------------------||--------------------------||---------------------------|------------------------|
---------------------------||--------------------------||---3----x--3--L--(3)--x----|------------------------|
--------------------------*||--------------0-----2-----||*--0----x--0--L--(0)--x----|-------------------2----|
--------------------------*||--------2-----------------||*--2----x--2--L--(2)--x----|--4----2-----5-----4----|
--------------0--1--0------||--------------------------||---3----x--3--L-------x----|--2----x--2--L--2--x----|
--0--0--3--0-----------3---||--0--0-----0-----0-----0--||---------------------------|------------------------|


  Q    E  E  E   E   Q       Q    E  E  E  E  Q       Q    E  E  E   E   Q       Q    E  E  E  E  Q     
--2----x--2--L--(2)--x----|--0----------5-----3----|--2----x--2--L--(2)--x----|-------------------0----|
--3----x--3--L--(3)--x----|--2----3-----------2----|--1----x--1--L--(1)--x----|-------3-----3-----3----|
--3----x--3--L--(3)--x----|--2----2-----------2----|--0----x--0--L--(0)--x----|-------4-----------4----|
--------------------------|------------------------|--------------------------|--4----4----------------|
--1----x--1--L-------x----|--0----x--0--L--0--x----|--3----x--3--L-------x----|--2----x--2--L--2--x----|
--------------------------|------------------------|--------------------------|------------------------|


                                                         ^                  
  Q    E  E  Q      E  E     Q    E  E  E  E  E  E       W                  
--------------------------|--------------------------||-------------------||
--0----x--0--L------------|--------------------------||-------------------||
-------x----------2g3--2--|--L----2--0-----------0--*||-------------------||
--0----x--0--L------x-----|-------2-----2--0--2-----*||--2----------------||
--1----x--1--L------x-----|--0----x--0--L-----x------||--2----------------||
--------------------------|--------------------------||--0----------------||




Duration Legend
---------------
W - whole
H - half
Q - quarter
E - 8th
S - 16th
T - 32nd
X - 64th
. - note dotted
|-n-|  - n-tuplets


Tablature Legend
----------------
L - tied note
x - dead note
g - grace note
(n) - ghost note
> - accentuded note
NH - natural harmonic
AH - artificial harmonic
TH - tapped harmonic
SH - semi harmonic
PH - pitch harmonic
h - hammer on
p - pull off
^ - brush up
v - brush down
Login or Register to remove this ad.