Ads

School (Deltarune) Guitar Tab

Submitted: Mar 27, 2021 by JordanVS (Last updated: Apr 05, 2021)

5
Average: 5 (1 vote)
Download | Listen
Game: Deltarune
Composer(s): Toby Fox
Style: Arrangement, Fingerstyle, Natural harmonics

AutoScroll: Slow | Medium | Fast
School                                           
Deltarune
Toby Fox
JordanVS

Tempo: 203 ~ 6/8 

The key was changed from Db to A. 
If you want to play it in the original key use a capo on the 4th fret. 
However, this arrangement wasn't created with a capo in mind so a few sections are a little awkward with it.


      Q.     E  E  E     Q    E  Q    E     Q    E  Q    E     E  E  E  Q    E   
E||-------------------|---------------5--|------------------|-----------4----5--|
B||---2---------L-----|----------5-------|---------------7--|--5----------------|
G||*---------2-----4--|--6----7----------|------------------|-------------------|
D||*------------------|------------------|----------7-------|-------------------|
A||---0------------0--|--4-------4----5--|-------5----------|-------------------|
E||-------------------|------------------|------------------|-------------------|


  Q.     E  E  E     Q    E  E  E  E     Q    E  Q    E     Q    E  Q    E   
--4---------L--2--|-------------------|------------------|------------------|
------------------|--5----------L-----|------------------|-------2----------|
---------2--------|-------6--------7--|--6----7--6----4--|---------------2--|
------------------|-------------------|---------------2--|-------3-------4--|
--0------------0--|--4-------4-----5--|-------5----------|------------------|
------------------|-------------------|------------------|------------------|


  Q.     E  E  E     Q    E  Q    E     Q    E  E  E  E     Q.     E  Q     
------------------|------------------|--4-------2--------|---------5-------|
------------------|-------0--2-------|----------------2--|-----------------|
--L---------L--1--|--2---------------|-------------------|-----------------|
--L------4--------|-------3----------|----------2-----1--|-----------------|
------------------|------------------|-------0-----------|-----------------|
---------------2--|--1-------1-------|--0----------------|-----------------|


                                                                          NH         
  E  H        E     Q    E  Q     E     E  E   E   Q     E     Q    E     E  Q       
--5--------------|--L----9-----------|--9-----10p--9--------|----------<>12--------||
-----------------|---------------10--|------------------12--|----------------------||
--7-----------8--|-------------------|--9----------------9--|-------9-------------*||
-----------------|-------------------|----------------------|---------------------*||
-----------------|-------------------|----------------------|----------------------||
-----------------|-------------------|----------------------|----------------------||


  H        E  E     H        E  E      Q     E  Q    E     Q    Q.     E   
--------------0--|--5--------------|---9----10--7----5--|--5--------------|
-----------------|--7--------------|--------------------|--5--------------|
-----------------|--7-----------9--|---L----------------|-----------------|
-----------------|--0-----------0--|---L-----0--0-------|-----------------|
-----------------|-----------------|-----------------5--|--4-----------4--|
-----------------|-----------------|--------------------|-----------------|


  Q    E  E  E  E      H        E  E     Q     E   Q     E      Q.      Q.      
--L----------------|------------------|--9----10--------12--|------------------|
--L----------------|--10--------------|-----------12--------|--10--------------|
----------------9--|---7-----------9--|--L------------------|------------------|
-------7--6--------|---9--------------|---------------------|------------------|
--L----4--4-----7--|------------------|-----------------12--|--12------11------|
-------------------|---7-----------7--|--L-----7--10--------|------------------|


  Q.     E  E  E     H        E  E     Q     E  E  E  E     Q    Q.     E   
------------------|--5--------------|--9----10--7-----5--|--5--------------|
------------------|--7--------------|--------------------|--5--------------|
------------------|--7-----------9--|--L-----------------|-----------------|
---------------7--|--0-----------0--|--L-----0--0--------|-----------------|
--9------7--------|-----------------|-----------------5--|--4-----------4--|
------------------|-----------------|--------------------|-----------------|


                                                                             NH  
  Q    E  E  E  E      Q    Q    E  E     Q    E   Q    E     H        E     E   
--L----------------|-------------------|--9----7--------9--|--7--------L--<>12--|
--L----------------|--10---------------|----------10-------|--------------------|
----------------9--|---7------------8--|--L----------------|--------------------|
-------7--6--------|---9---------------|-------------------|--------------------|
--L----4--4-----7--|-------------------|----------------6--|--7--------L--------|
-------------------|---7------------7--|--L--------7-------|--------------<>12--|


  Q.     Q    E      Q     E    Q     E     Q    E   Q    E       E  E  E  Q    E   
---------9-------|--10----12s--14----12--|-------2p--0-------||--------------------|
-----------------|---9---------------12--|----------------3--||---5-----5--5----5--|
-----------------|---9----------------9--|-------------------||*--------6--6----6--|
-----------------|-----------------------|-------------------||*-------------------|
-----------------|-----------------------|-------------------||---4-------------4--|
-----------------|-----------------------|-------------------||--------------------|


  Q    E  E  E  E     E  Q    Q    E     Q    E  Q    E     E  E  E  Q    E   
-------------------|----------5-------|------------------|-------------------|
--5----3--2-----3--|--5-------5----5--|--L---------------|--------5--5----5--|
--6----4--2-----4--|--6------------6--|--L---------------|--------6--6----6--|
-------------------|---------------0--|-------0-------0--|-------------------|
----------4--------|--5---------------|--7-------4-------|--4-------------4--|
-------------------|------------------|------------------|-------------------|


  Q    E  E  E  E     E  Q    Q    E     Q.     Q.        E  E  E  Q    E   
-------------------|------------------|----------------|-------------------|
--5----3--2-----3--|--0-------2-------|----------------|--------5--5----5--|
--6----4--2-----4--|--1-------2----2--|--L-------------|--------6--6----6--|
-------------------|--3------------4--|--L------4------|-------------------|
----------4--------|------------------|----------------|--4-------------4--|
-------------------|------------------|----------------|-------------------|


  Q    E  E  E  E     E  Q    Q    E     Q.     E  E  E     E  Q    Q    E   
-------------------|----------5----0--|--L---------------|------------------|
--5----3--2-----3--|--5-------5----2--|--L------------0--|--3-------2-------|
--6----4--2-----4--|--6---------------|------------2--1--|--4-------2----2--|
-------------------|---------------0--|--2---------2-----|---------------2--|
----------4--------|--5---------------|------------------|--4------------5--|
-------------------|------------------|------------------|------------------|


  Q    E  Q    E     H        E  S  S    Q    E   Q    E       H        E  E   
------------------|-------------------|--------------------||-----------------|
-------2----------|--0----------------|--------------------||--0--------------|
-------2-------2--|--1----------------|-------------------*||--1--------------|
---------------2--|--2--------L-------|-------------------*||--2--------L--2--|
------------------|--------------3h-4-|-------2p--0----2---||-----------------|
------------------|-------------------|--------------------||-----------------|


                                                  NH        NH                  
  H        E    E      Q.      Q    E     Q       Q.        E     H.            
-----------8h--10--|--12------10-------|-----------------------|--5------------|
-------------------|----------------8--|--L----<>12------------|--5------------|
-------------------|-------------------|-------<>12------<>12--|---------------|
--L----------------|-------------------|-----------------<>12--|---------------|
-------------------|---8---------------|-----------------------|---------------|
-------------------|-------------------|-----------------------|--3------------|


  Q.     Q.        H        E  E     Q.     Q.        Q    E  E   E  E     Q.     Q.      
----------------|--------------0--|--L-------------|-------0--2------0--|--L-------------|
--0-------------|--------------2--|--L------2------|--3----2--3------0--|--L-------------|
--0------0------|--2--------L-----|---------2------|--4-----------------|----------------|
---------0------|--2--------L-----|---------2------|--0-------0h--1--2--|----------------|
----------------|--0--------L-----|----------------|--------------------|----------------|
--L-------------|--------------0--|--L-------------|--------------------|---------4------|


  E  E  Q.       
---------------||
---------------||
---------------||
--7------------||
---------------||
--5------------||




Duration Legend
---------------
W - whole
H - half
Q - quarter
E - 8th
S - 16th
T - 32nd
X - 64th
. - note dotted
|-n-|  - n-tuplets


Tablature Legend
----------------
L - tied note
x - dead note
g - grace note
(n) - ghost note
> - accentuded note
NH - natural harmonic
AH - artificial harmonic
TH - tapped harmonic
SH - semi harmonic
PH - pitch harmonic
h - hammer on
p - pull off
b - bend
br - bendRelease
pb - preBend
pbr - preBendRelease
brb - bendReleaseBend
\n/ - tremolo bar dip
\n - tremolo bar dive
-/n - tremolo bar Release up
/n\ - tremolo bar inverted dip
/n - tremolo bar return
-\n - tremolo bar Release down
S - shift slide
s - legato slide
/ -  slide into from below or out of upwards
\ -  slide into from above or out of downwards
~ - vibrato
W - wide vibrato
tr - trill
TP - tremolo picking
T - tapping
S - slap
P - pop
< - fade in
^ - brush up
v - brush down
Login or Register to remove this ad.