Ads

THE LEGEND (Deltarune) Guitar Tab

Submitted: Apr 03, 2020 by johnbie

5
Average: 5 (1 vote)
Download | Listen
Game: Deltarune
Composer(s): Toby Fox
Style: Arrangement, Fingerstyle

AutoScroll: Slow | Medium | Fast
THE LEGEND
Deltarune
Song by Toby Fox
Arranged by John Lee


     Q    E  E  E  E  Q       E  E  E  E  H           Q    E  E  E  E  Q       Q    Q    H         
E||-------------------0----|--0-----0--1--3--------|-------5--3--5--7--8----|--7---------3--------|
B||-------1--0--1--3-------|-----3-----------------|------------------------|---------------------|
G||--2---------------------|--0--------------------|------------------------|---------------------|
D||------------------------|-----------------------|--3---------------------|---------------------|
A||------------------------|-----------------------|------------------------|--7---------3--------|
E||------------------------|-----------------------|------------------------|-------7-------------|


  Q    Q    Q    Q       Q    Q    Q    Q       H        Q    Q       Q    E  E  H           W                 
--1----0----1----5----|--3----1----0---------|----------------0----|-------------0--------|--L----------------|
----------------------|-----------------1----|--3--------1---------|--3-------------------|-------------------|
----------------------|----------------------|---------------------|-------1--------------|-------------------|
--0-------------------|----------------------|---------------------|----------4-----------|-------------------|
----------------------|--3-------------------|--1------------------|--2-------------------|-------------------|
----------------------|----------------------|---------------------|----------------------|-------------------|


  Q    E  E  E  E  Q       Q    E  E  H        E     Q    E  E  E  E  Q       Q    E  E  H        E   
-------------8-----7----|--3----------0-----------|--0----1--3--1-----0----|-------------0-----------|
----------5-------------|-------3-----------------|------------------------|--3----1-----------------|
-------5----------------|-------------------------|------------------------|-------------------------|
--7-------------7-------|----------0-----------L--|----------------3-------|----------2-----------L--|
------------------------|-------------------------|------------------------|-------------------------|
--5----------L----------|--3----------------------|--1----------L----------|--0----------------------|


  Q    E  E  E  E  Q       Q    E  E  H        E     Q    E  E  Q    Q       Q    Q       H         
-------------8-----7----|--3----------0-----------|--0----1--3--1----0----|------------------------|
----------5-------------|-------3-----------------|-----------------------|--3----1----------------|
-------5--------7-------|----------0-----------L--|--3--------------------|--2---------/1g4--------|
--7---------------------|-------------------------|-----------------------|------------------------|
--5----------L----------|--3----------------------|-----------------------|------------------------|
------------------------|-------------------------|-----------------------|------------------------|


    E  E  E  E  E  E  E  E     E  E  E  E  E  E  E  E     E  E  E  E  E  E  E  E     E  E  E  E  E  E  E  E   
|---------------8-----7-----|--3-----------0-----------|--0-----1--3--1-----0-----|--------------0-----------|
|------------5--------------|--------3-----------------|--------------------------|--3-----1-----------------|
|*--------5--------------5--|--------------------------|--------------------------|-----------------------0--|
|*--7--------------7--------|-----------0-----------0--|-----------------3--------|-----------2--------2-----|
|------7--------------------|-----2--------------2-----|-----3-----------------3--|-----2--------------------|
|---5-----------------------|--3--------------3--------|--1-----------------------|--0--------------0--------|


  E  E  E  E  E  E  E  E     E  E  E  E  E  E  E  E      Q     E   E   Q     Q        Q    Q        H           
--------------8-----7-----|--3-----------0-----------|--12----13--15--13----12----|--10----8------------------||
-----------5-----------5--|--------3-----------------|--11------------------12----|--10---------/8g12---------||
--------5--------7--------|-----------0-----------0--|----------------------------|--------------------------*||
--7-----------------------|-----2--------------2-----|----------------------------|--------------------------*||
--5-----------------------|--3--------------3--------|----------------------------|---------------------------||
-----5--------------------|--------------------------|----------------------------|---------------------------||


  E  E  E  E  E  E  Q       E  S S E.  S Q    E  E     Q.      E  Q    E  E     H        H         
--------------------0----|--0------0---1-3----5--7--|--8------10--8-------7--|--3-----------------|
--------1--0--1--3-------|-------3------------------|------------------------|--------------------|
--2--2-------------------|-----0--------------------|------------------------|--------------------|
-------------------------|--------------------------|------------------------|--------------------|
--0----------------------|--------------------------|------------------------|--------------------|
-------------------------|--3-----------------------|--1---------------1-----|--0--------0--------|


  E  E  E  E  E  E  E  E     Q    E  E  Q    E  E     Q.     E  Q    Q       H        H           Q    E  E  E   E   
-----------5--------------|------------------------|----------------------|-----------0--------|-------7--8--7------|
--6--5--6-----8--6--5--6--|--8----5--3--5----1--5--|--6------5--3----1----|--0-----------------|----------------10--|
-----------5--------------|------------------------|----------------------|--------------------|--------------------|
--7--5--7-----9--7--5--7--|--9----5--3--5----2--5--|--7------7--5----3----|--2--------2--------|--7-----------------|
--------------------------|------------------------|----------------------|--------------------|--------------------|
--------------------------|------------------------|----------------------|--------------------|--------------------|


  Q     Q    Q       Q    E  E  E   E      H.              Q    E  E  E   E     H        Q       Q    E  E  E  E   
------------------|-------7--8--7------|--10------------|-------7--8--7------|--7--------8----|--3----3--1--0--1--|
------------------|----------------10--|----------------|----------------10--|----------------|--1----------------|
--9----------9----|--0-----------------|----------------|--------------------|----------------|-------------------|
-------10---------|--------------------|----------------|--3-----------------|----------------|-------------------|
------------------|--------------------|----------------|--------------------|----------------|-------------------|
------------------|--------------------|----------------|--------------------|----------------|-------------------|


     |-3-|                                                                                                          
  E  S S S E  E  E  E     Q    E  E  E  E     Q    Q    Q       Q.     E  E  E     H        Q       Q    Q    Q     
--0--------------------|-------0--1--0-----|------------1----|--0---------------|--0-------------|-----------------|
-----------------------|----------------3--|-----------------|---------3--1--3--|-----------1----|--4--------------|
-----------------------|-------------------|--3--------------|------------------|----------------|-------4----2----|
--5--3-5-3-2--3--2--0--|-------------------|-------3---------|------------------|----------------|-----------------|
-----------------------|--1----------------|-----------------|--0---------------|----------------|--2--------------|
-----------------------|-------------------|-----------------|------------------|----------------|-----------------|


  H        Q       Q.     Q.        Q.     Q              
----------------|--0-------------|--------------|-------||
-----------4----|---------0------|--0-----------|-------||
----------------|----------------|--------------|-------||
--1-------------|--2-------------|---------2----|-------||
----------------|----------------|--------------|-------||
----------------|----------------|--------------|-------||




Duration Legend
---------------
W - whole
H - half
Q - quarter
E - 8th
S - 16th
. - note dotted
|-n-|  - n-tuplets


Tablature Legend
----------------
L - tied note
g - grace note
(n) - ghost note
/ -  slide into from below or out of upwards
\ -  slide into from above or out of downwards
Login or Register to remove this ad.