Ads

Ferris Wheel (Deltarune) Guitar Tab

Submitted: Jun 26, 2022 by jked (Last updated: Jun 27, 2022)

0
Download | Listen
Game: Deltarune
Composer(s): Toby Fox
Style: Arrangement, Fingerstyle

AutoScroll: Slow | Medium | Fast

Ferris Wheel
Deltarune
Composed by Toby Fox
6/26/2022

Don't mind the awkward spacing, tabs aren't the best for harder rhythms. Listen to the song first to get a feel for it.

E |--4-----------------4-----------------4-------------|
B |-----------2-----------------2--------------2-------|
G |--------------------------------------4-------------|
D |----------------------------------------------------|
A |--------0-----------------------------0-------------|
D |--0-----------------------------0-------------------|


--4-----------------4--------------------0----------|
-----------2-----------------2--------------2-------|
-----------------------------------------1----------|
----------------------------------------------------|
--------0--------------------------------0----------|
--0--------------------------------0----------------|


--0-----------------0-----------------2-------------|
----------------------------------------------------|
-----------2-----------------2----------------------|
--------2-----------------------------2-------------|
--0-----------------------------0-----------0-------|
----------------------------------------------------|


--0-----------------0-----------------2-------------|
----------------------------------------------------|
-----------1-----------------1--------------1-------|
--------2-----------------------------2-------------|
--0--------------------------------0----------------|
----------------------------------------------------|


--4-----------------4-----------------4-------------|
-----------2-----------------2--------------2-------|
--------------------------------------4-------------|
----------------------------------------------------|
--------0-----------------------------0-------------|
--0--------------------------------0----------------|


--4-----------------4-----------------0-------------|
-----------2-----------------2--------------2-------|
--------------------------------------1-------------|
----------------------------------------------------|
--------0-----------------------------0-------------|
--0--------------------------------0----------------|


--0-----------------0-----------------2-------------|
----------------------------------------------------|
-----------2-----------------2----------------------|
--------2-----------------------------2-------------|
--0-----------------------------0-----------0-------|
----------------------------------------------------|


--0-----------------0-----------------2-------------|
----------------------------------------------------|
-----------1-----------------1--------------1-------|
--------2-----------------------------2-------------|
--0--------------------------------0----------------|
----------------------------------------------------|


-----------0--4--5--0-------|--2-----------0-------------|
--------2--0-----------2----|--0--------0----------------|
-----2--------2-------------|-----1--1--2--1-----1--2----|
-----4----------------------|-----2--------2-------------|
--2-------------------------|----------------------------|
----------------------------|----------------------------|


-----------0--4--5--0-------|--0-----5--7--4--4--0--0----|
--------2--0-----------2----|-----0-----5-----5--0-------|
-----2--------2-------------|-----2--------4--------1----|
-----4----------------------|--4-------------------------|
--2-------------------------|----------------------------|
----------------------------|----------------------------|


-----------0--4--5--0-------|--2-----------0-------------|
--------2--0-----------2----|--0-------------------------|
--4--2--------2-------------|-----1--1--2--1-----1--2----|
-----4----------------------|-----2----------------------|
----------------------------|-----------2----------------|
----------------------------|----------------------------|


--2-----0--2--------5-------------------------------|
--------------------------3-----2-----------0--0----|
--------------------------------------2-------------|
----------------------------------------------------|
----------------------------------------------------|
--0-----------------------0-------------------------|


--------0-----0-------------|--0-------------------------|
--0-------------------------|-----------------------12---|
-----------2--1-------------|-----------------9s-10------|
--2-------------------------|----------------------------|
-----2----------------------|----------------------------|
----------------------------|----------------------------|


-----------------12L12L-----|--12L---------12------------||
-----------9s-10------------|----------------------------||
----------------------------|----------------------------||
----------------------------|----------------------------||
----------------------------|----------------------------||
----------------------------|----------------------------||
Login or Register to remove this ad.