Ads

Darkness Falls (Deltarune) Guitar Tab

Submitted: May 21, 2021 by JordanVS (Last updated: May 24, 2021)

5
Average: 5 (2 votes)
Download | Listen
Game: Deltarune
Composer(s): Toby Fox
Style: Arrangement, Fingerstyle

AutoScroll: Slow | Medium | Fast
Darkness Falls                                                 
Deltarune
Toby Fox
JordanVS

*Tuning: Half-Step Down (D# - G# - C# - F# - A# - d#)
Tempo: 86 ~ 3/4


       E.   S  E.   S  E.   S     E.   S  E.   S  E.   S     E.   S  E.   S  E.   S   
D#||-------------------7---(7)-|--------------------------|--------------------------|
A#||---4---(4)-5---(5)---------|--4---(4)-----------------|--------------------------|
F#||*--4-----------------------|--L-------6---(6)---------|--4---(4)-6---(6)---------|
C#||*--6-----------------------|--L---------------6---(6)-|--4-------L-------6---(6)-|
G#||---4-----------------------|--L-----------------------|--6---------------L-------|
D#||---------------------------|--------------------------|--4-----------------------|

                           1.
  E.   S  E.   S  E.   S     E.   S  E.   S  E.   S     E.   S  E.   S  E.   S     E.   E.    E.   E.   
--------------------------|------------------3---(3)-|--0---(0)-----------------|----------------------|
--------------------------|--0---(0)-1---(1)---------|------------------3---(3)-|--0---(0)---(0)-------|
------------------1---(1)-|--0-----------------------|--L-------2---(2)---------|--0----------L--------|
--------------------------|--2-----------------------|--L-----------------------|--0----------L----0---|
--6---(6)-4---(4)-2---(2)-|--0-----------------------|--L-----------------------|----------------------|
--L-----------------------|--------------------------|--------------------------|--0-------------------|


  ^                        2.                                                         
  E.   E.    E.    E.        E.   S  E.   S  E.   S     E.   S   E.    S   E.    S   
--2---(2)---(2)---(2)----||------------------3---(3)-|--0---(0)-10---(10)-----------|
--2----------------L-----||--0---(0)-1---(1)---------|--------------------13---(13)-|
--3----------------L----*||--0-----------------------|--L---------------------------|
--5----------------L----*||--2-----------------------|--L---------------------------|
-------------------------||--0-----------------------|--L---------------------------|
--0----------------------||--------------------------|------------------------------|


     ^       NH       NH       NH                                                              
     E.      E.       E.       E.      Q    E  E  E  E      Q    Q    E  E      Q    H         
------------------------------------|-------0--2--3--5--|---7------------7--|-----------------|
--<>12---<>(12)---<>(12)---<>(12)---|--2-------L--------|---8----8----------|--10-------------|
--<>12-------------------------L----|--3-------L--------|---9---------7-----|---7----7--------|
--<>12-------------------------L----|--5-------L--------|--10---------------|---9-------------|
------------------------------------|-------------------|-------------------|-----------------|
-----0------------------------------|--0----------------|-------------------|-----------------|


   Q     E  E  E  E      Q    Q    E  E     Q     E  E  E   E     Q    Q    Q       E  E  E  E  E  E   
---7----10--8--7-----|-------------------|--0----10--8--7------|-----------------|--0-----------------|
---8--------------8--|--10---------8--7--|--0-----------L--10--|--8----7----8----|--0-----------------|
---9-----------------|---7----7----------|--0-----------L------|--9----7----9----|--------------------|
--10-----------------|---9---------------|---------------------|--0--------------|--------------2-----|
---------------------|-------------------|---------------------|-----------------|--------2--------2--|
---------------------|-------------------|--8------------------|-----------------|--0--3-----3--------|


  E  E  E  E  E  E      E  E   E  E  E  E      E  E  E  E  Q        E  E   E  E  E  E      E  E  E  E  E  E   
--0-----------------|-------------------7--|--------------------|---------10--8--7-----|---------------------|
--0-----------------|--12------8-----------|--10----------------|--12---------------8--|--10-----------8--7--|
--------------------|------9---------7-----|---------7----------|------9---0-----7-----|---------7-----------|
-----4--2--0-----0--|-------------9--------|---------7-----7----|----------------------|---------7-----7-----|
--0-----------------|---------10-----------|------9-----9-------|----------------------|------9-----9--------|
--------------7-----|---8------------------|---7----------------|---8------------------|---7-----------------|


  E  E   E  E  E  E     E  E  E  E  E  E     E  E  E  E  E  E     H.             
--0-----10--8--7--5--|--3-----2-----3-----|--0-----------0-----|--7------------||
--0------------------|-----------------0--|--0-----0--------0--|--7------------||
-----0---------------|-----0-----2--------|-----0-----0--------|--9------------||
---------------------|--0-----------------|--------------------|--9------------||
---------------------|--------------------|--------------------|---------------||
--8------------------|--------------------|--0-----------------|---------------||




Duration Legend
---------------
W - whole
H - half
Q - quarter
E - 8th
S - 16th
T - 32nd
X - 64th
. - note dotted
|-n-|  - n-tuplets


Tablature Legend
----------------
L - tied note
x - dead note
g - grace note
(n) - echo note
> - accentuded note
NH - natural harmonic
AH - artificial harmonic
TH - tapped harmonic
SH - semi harmonic
PH - pitch harmonic
h - hammer on
p - pull off
< - fade in
^ - brush up
v - brush down
Login or Register to remove this ad.