Ads

The Circus (Deltarune) Guitar Tab

Submitted: May 21, 2021 by JordanVS (Last updated: May 22, 2021)

5
Average: 5 (4 votes)
Download | Listen
Game: Deltarune
Composer(s): Toby Fox
Style: Arrangement, Fingerstyle

AutoScroll: Slow | Medium | Fast
The Circus
Deltarune
Toby Fox
JordanVS

*Capo on the 3rd fret
Tempo: 142 ~ 3/4


     Q    Q    Q       Q    Q    Q       Q    Q    Q       Q    Q    Q       Q    Q    Q     
E||-------1----1----|-------1----1----|-------1----1----|-------1----1----|-----------------|
B||--3----3----3----|-------3----3----|--3----3----3----|-------3----3----|-------2----2----|
G||-----------------|--2--------------|-----------------|--2--------------|--3----3----3----|
D||-----------------|-----------------|-----------------|-----------------|-----------------|
A||-----------------|-----------------|-----------------|-----------------|-----------------|
E||-----------------|-----------------|-----------------|-----------------|-----------------|

                                                     *Segno
  Q    Q    Q       Q    Q    Q       Q    Q    Q       Q    Q    Q       Q    Q    Q       Q    Q    Q     
-----------------|-----------------|-----------------|-------1----1----|-------1----1----|-----------------|
-------2----2----|-------2----2----|-------2----2----|-------3----3----|-------3----3----|-------6----6----|
-------3----3----|--3----3----3----|-------3----3----|--2--------------|-----------------|-------7----7----|
--3--------------|-----------------|--3--------------|--0--------------|-----------------|--0--------------|
-----------------|-----------------|-----------------|-----------------|--0--------------|-----------------|
-----------------|-----------------|-----------------|-----------------|-----------------|-----------------|


  E  E  E  E  E  E     Q    Q    Q       Q    Q    Q       Q    Q    Q       Q    Q    Q     
--------------8--0--|--1--------------|-----------------|-----------------|-----------------|
-----6--5--6--------|-------2----2----|--2--------------|-------2----2----|-------1---------|
--------7-----7-----|-------3----3----|-------3----3----|--3--------------|--3---------3----|
--------0-----------|-----------------|-----------------|-----------------|-----------------|
--0-----------0-----|--1--------------|-----------------|--1--------------|-------1---------|
--------------------|-----------------|--1--------------|-----------------|--1---------1----|


  Q    Q    Q       Q    Q    Q       Q    Q    Q       E  E  E  E  E  E     Q    Q    Q     
-------1----1----|--5--------------|--0--------------|--5-----------------|--8--------------|
--3--------------|-------6----6----|-------6----6----|-----5-----5--6--5--|-----------------|
--2--------------|-------7----7----|-------7----7----|--------7-----7-----|-------6----6----|
--0--------------|-----------------|--0--------------|--------0-----------|-------8----8----|
-----------------|--0--------------|-----------------|--0-----------0-----|-----------------|
-----------------|-----------------|-----------------|--------------------|--6--------------|

										    *Da Segno
  Q    Q    Q       Q    Q    Q       Q    Q    Q       H.             
--4--------------|--1--------------|-----------------|--1------------||
-------2----2----|-------2----2----|-------2----2----|--3------------||
-------3----3----|-------3----3----|-------3----3----|--2------------||
-----------------|-----------------|-----------------|--0------------||
-----------------|--1--------------|-------1---------|---------------||
--1--------------|-----------------|--1---------1----|---------------||




Duration Legend
---------------
W - whole
H - half
Q - quarter
E - 8th
S - 16th
T - 32nd
X - 64th
. - note dotted
|-n-|  - n-tuplets


Tablature Legend
----------------
L - tied note
x - dead note
g - grace note
(n) - ghost note
> - accentuded note
NH - natural harmonic
AH - artificial harmonic
TH - tapped harmonic
SH - semi harmonic
PH - pitch harmonic
h - hammer on
p - pull off
< - fade in
^ - brush up
v - brush down
Login or Register to remove this ad.

2 comments on The Circus

wow

5

You came back Jordan, your tabs are the best.

THANKS JOrDAN ;D

5

THANKS JOrDAN ;D