Ads

Chapter 1 - Short Pieces Medley (Deltarune) Guitar Tab

Submitted: Sep 02, 2022 by JordanVS (Last updated: Sep 08, 2022)

5
Average: 5 (1 vote)
Download | Listen
Game: Deltarune
Composer(s): Toby Fox
Style: 2 or more instruments, Arrangement, Fingerstyle

AutoScroll: Slow | Medium | Fast
Chapter 1 - Short Pieces Medley                               
Deltarune
Toby Fox
JordanVS

A collection of every short piece from Chapter 1, just for completeness sake.

Download link: https://www.mediafire.com/file/rn9ckclpsv5kuvi/Short_Pieces_Medley_-_Del...

Susie 
Tempo: 70

     H        E  E  E  E     W                   H        E  E  E  E   
E||-----------------------|-------------------|-----------------------|
B||-----------------------|--7----------------|--L--------------------|
G||-----------------4--6--|-------------------|-----------------4--6--|
D||--------------6--------|-------------------|--------------6--------|
A||-----------------------|-------------------|-----------------------|
E||-----------------------|--4----------------|--L--------------------|


  W                   H        E  E  E  E     W                 
--6----------------|--L--------------9--7--|--6----------------|
-------------------|--------------7--------|-------------------|
-------------------|-----------------------|-------------------|
-------------------|-----------------------|-------------------|
-------------------|-----------------------|-------------------|
--4----------------|--L--------------------|--4----------------|


  H        E  E  E  E     W                   W                         
--L-----------------4--|-------------------|-------------------|
--------------7--7-----|--4----------------|--L----------------|
-----------------------|-------------------|-------------------|
-----------------------|-------------------|-------------------|
-----------------------|-------------------|-------------------|
--L--------------------|--4----------------|--L----------------|



I'm Very Bad
Tempo: 70

     H        E   E   E   E     H        E   E   E   E   
E||--------------------------|--9-----------------------|
B||------------------10--13--|------------------10--13--|
G||--------------11----------|--------------11----------|
D||--------------------------|--------------------------|
A||--------------------------|--9-----------------------|
E||--------------------------|--------------------------|


  Q     E  Q     E  E   E      W                                     
--9----14--9----14--9------|--------------------|
-----------------------10--|--13----------------|
---------------------------|--------------------|
---------------------------|--------------------|
--9------------------------|--11----------------|
---------------------------|--------------------|

Rouxls Kaard
Tempo: 200

Guitar #1

     Q.     Q.     E  E     E  Q.     Q    Q         Q.     Q.     E  E   
E||----------------------|----------------------|--0g2-------------0-----|
B||--2-------------------|----------------------|---------------------3--|
G||--2-------------2-----|----------------------|----2-------------------|
D||-------------------6--|--4--------------4----|----0------0------0-----|
A||----------------------|----------------------|------------------------|
E||--2------2------2-----|--L--2------2----2----|------------------------|


  E  E  Q    Q    Q       Q.     Q.     Q       E  E  Q    Q    Q     
-----------------------|---------------------|-----------------------|
--2-----0---------0----|--2------------------|------------------2----|
-------------2---------|--2------------------|-------------2---------|
--L--2-------2----2----|---------------------|--4-----6--------------|
-----------------------|---------------------|-----------------------|
-----------------------|--2------2------2----|--L--2-------2----2----|


  Q.     Q.     E  E     E  E  Q    Q    Q             
--2-------------4--5--|--4-----0---------0----|
----------------------|-------------0---------|
--2-------------------|--4----------1---------|
--0------0------0-----|--L--2-------2----2----|
----------------------|-----------------------|
----------------------|-----------------------|

Guitar #2
Capo on 2nd fret

      E    E    E    E    E    E    E    E    
E||---0----2----3----2----0----2----3----2---|
B||------------------------------------------|
G||--(0)--(2)--(4)--(2)--(0)--(2)--(4)--(0)--|
D||------------------------------------------|
A||------------------------------------------|
E||------------------------------------------|


   E    E    E    E    E    E    E    E       E    E    E    E    E    E    E    E    
---0----2----3----2----0----2----3----2---|---0----2----3----2----0----2----3----2---|
------------------------------------------|------------------------------------------|
--(0)--(2)--(4)--(2)--(0)--(2)--(4)--(0)--|--(0)--(2)--(4)--(2)--(0)--(2)--(4)--(0)--|
------------------------------------------|------------------------------------------|
------------------------------------------|------------------------------------------|
------------------------------------------|------------------------------------------|


   E    E    E    E    E    E    E    E       E    E    E    E    E    E    E    E    
---0----2----3----2----2----0---------2---|---0----2----3----2----0----2----3----2---|
---------------------------------3--------|------------------------------------------|
--(0)--(2)--(4)--(2)----------------------|--(0)--(2)--(4)--(2)--(0)--(2)--(4)--(0)--|
----------------------(4)--(2)--(0)--(4)--|------------------------------------------|
------------------------------------------|------------------------------------------|
------------------------------------------|------------------------------------------|


   E    E    E    E    E    E    E    E       E    E    E    E    E    E    E    E    
---0----2----3----2----0----2----3----2---|---0----2----3----2----0----2----3----2---|
------------------------------------------|------------------------------------------|
--(0)--(2)--(4)--(2)--(0)--(2)--(4)--(0)--|--(0)--(2)--(4)--(2)--(0)--(2)--(4)--(0)--|
------------------------------------------|------------------------------------------|
------------------------------------------|------------------------------------------|
------------------------------------------|------------------------------------------|


   E    E    E    E    E    E    E    E                                                          
---5----3----2----0---------3----2--------|
--(0)------------------3--------------3---|
-------(2)--(0)------------(0)------------|
-----------------(4)--(0)-------(4)--(0)--|
------------------------------------------|
------------------------------------------|

Gallery
Tempo: 160

Guitar #1

     E  E  E  E  E  E  E  E     E  E  E  E  E  E  E  E   
E||--------------------------|--------------------------|
B||--8-----6--5--8-----6--5--|--8-----6--5--8-----6--5--|
G||-----5-----------5--------|-----5-----------5--------|
D||--------------------------|--------------------------|
A||--5-----------------------|--L-----------------------|
E||--------------------------|--------------------------|


  E  E  E  E  E  E  E  E     E  E  E  E  E  E  E  E   
--------------------------|--------------------------|
--8-----6--5--8-----6--5--|--8-----6--5--8-----6--5--|
-----5-----------5--------|-----5-----------5--------|
--------------------------|--------------------------|
--5-----------------------|--L-----------------------|
--------------------------|--------------------------|


   E  E  E  E   E  E  E  E      E  E  E  E   E  E  E  E   
----------------------------|----------------------------|
--10-----8--7--10-----8--7--|--10-----8--7--10-----8--7--|
------7------------7--------|------7------------7--------|
----------------------------|----------------------------|
---7------------------------|---L------------------------|
----------------------------|----------------------------|


   E  E  E  E   E  E  E  E      E  E  E  E   E  E  E  E                     
----------------------------|----------------------------|
--10-----8--7--10-----8--7--|--10-----8--7--10-----8--7--|
------7------------7--------|------7------------7--------|
----------------------------|----------------------------|
---7------------------------|---L------------------------|
----------------------------|----------------------------|

Guitar #2


     E  E  E  E  E  E  E  E     E  E  E  E  E  E  E  E     E  E  E  E  E  E  E  E   
E||--------------------------|--------------------------|--------------------------|
B||--------------------------|--------------------------|--------------------------|
G||-----2-----0-----2-----0--|-----2-----0-----2-----0--|-----2-----0-----2-----0--|
D||--0-----3-----0-----3-----|--0-----3-----0-----3-----|--0-----3-----0-----3-----|
A||--------------------------|--------------------------|--------------------------|
E||--------------------------|--------------------------|--------------------------|


  E  E  E  E  E  E  E  E     E  E  E  E  E  E  E  E     E  E  E  E  E  E  E  E   
--------------------------|--------------------------|--------------------------|
--------------------------|-----0-----------0--------|-----0-----------0--------|
-----2-----0-----2-----0--|--------0--2--------0--2--|--------0--2--------0--2--|
--0-----3-----0-----3-----|--2-----------2-----------|--2-----------2-----------|
--------------------------|--------------------------|--------------------------|
--------------------------|--------------------------|--------------------------|


  E  E  E  E  E  E  E  E     E  E  E  E  E  E  E  E                                             
--------------------------|--------------------------|
-----0-----------0--------|-----0-----------0--------|
--------0--2--------0--2--|--------0--2--------0--2--|
--2-----------2-----------|--2-----------2-----------|
--------------------------|--------------------------|
--------------------------|--------------------------|


Fanfare (from "Rose of Winter")
Tempo: 120
Capo on 3rd fret

          Q      Q    Q    Q       Q.     E  Q    Q       Q.     E  H         
E||-------1g0----2----3----|--2------0-------2----|--0------------------|
B||---------2----3----5----|--3------2--3----3----|--1------------------|
G||------------------------|------------4---------|---------2--2--------|
D||------------------------|----------------------|---------2--2--------|
A||--0---------------------|--L--------------0----|---------------------|
E||------------------------|----------------------|--1------------------|


                                                             ^                         
  Q.     E  Q    Q       H.           S  S S  S    Q    Q    H                         
--0-------------------|-------------------------|--5---------0--------|
--0--------------0----|--2-----------------5h-8-|------------4--------|
---------2--2---------|--2------------6h-7------|------------5--------|
---------2--2---------|-------------------------|------------6--------|
----------------------|--0----------------------|--0------------------|
--3--------------3----|-------------------------|---------------------|


Basement
Tempo: 73

      H        Q.     E     H        H         
E|||---------------------|-----------4--------|
B|||---------------------|-----------5--------|
G|||---------------------|--------------------|
D|||------------------0--|--0-----------------|
A|||---------------------|--------------------|
E|||---------------------|--------------------|


  H        Q.     E     H        H           H        Q.     E   
--5------------------|-----------8--------|--5------------------|
--6------------------|-----------9--------|--6------------------|
---------------------|--------------------|---------------------|
--L---------------0--|--0-----------------|--L---------------0--|
---------------------|--------------------|---------------------|
---------------------|--------------------|---------------------|


  H        H           H        Q.     E     H        H         
-----------4--------|--5--------7---------|--8--------4--------|
-----------5--------|--6--------8---------|--9--------5--------|
--------------------|---------------------|--------------------|
--0-----------------|--L---------------0--|--0-----------------|
--------------------|---------------------|--------------------|
--------------------|---------------------|--------------------|


  W                                                                             
--5----------------|
--6----------------|
-------------------|
--L----------------|
-------------------|
-------------------|


Imminent Death
Tempo: 97
Capo on 2nd fret
  
     S. S. S S. S. S S. S. S S. S. S    S. S. S S. S. S S. S. S S. S. S  
E||--0--0----0--0----0--0----0--0----|--0--0----0--0----0--0----0--0----|
B||--4--4----4--4----4--4----4--4----|--4--4----4--4----4--4----4--4----|
G||----------------------------------|----------------------------------|
D||----------------------------------|----------------------------------|
A||----------------------------------|----------------------------------|
E||----------------------------------|----------------------------------|

 
  S. S. S S. S. S S. S. S S. S. S    S. S. S S. S. S S. S. S S. S. S  
--0--0----0--0----0--0----0--0----|--0--0----0--0----0--0----0--0----|
--4--4----4--4----4--4----4--4----|--4--4----4--4----4--4----4--4----|
----------------------------------|----------------------------------|
--1---------------0---------------|--L-------------------------------|
----------------------------------|----------------------------------|
----------------------------------|----------------------------------|


  S. S. S S. S. S S. S. S S. S. S    S. S. S S. S. S S. S. S S. S. S  
--0--0----0--0----0--0----0--0----|--0--0----0--0----0--0----0--0----|
--4--4----4--4----4--4----4--4----|--4--4----4--4----4--4----4--4----|
----------------------------------|----------------------------------|
----------------------------------|--1---------------0---------------|
----------------------------------|----------------------------------|
----------------------------------|----------------------------------|


  S. S. S S. S. S S. S. S S. S. S    S. S. S S. S. S S. S. S S. S. S                  
--0--0----0--0----0--0----0--0----|--0--0----0--0----0--0----0--0----|
--4--4----4--4----4--4----4--4----|--4--4----4--4----4--4----4--4----|
----------------------------------|----------------------------------|
--4-------------------------------|----------------------------------|
----------------------------------|----------------------------------|
----------------------------------|----------------------------------|

The Door
Tempo: 68
Capo on 3rd fret

     W                   W                 
E||-------------------|-------------------|
B||--5----------------|--4----------------|
G||-------------------|-------------------|
D||--2----------------|--1----------------|
A||--0----------------|--0----------------|
E||-------------------|-------------------|


  W                   W                   H        Q    Q     
--4----------------|-------------------|----------------8----|
-------------------|-------------------|--5------------------|
-------------------|--5----------------|-----------5---------|
--6----------------|-------------------|--7------------------|
-------------------|--3----------------|--0------------------|
--4----------------|--4----------------|---------------------|


  Q    Q    Q    Q       H        Q    Q       Q    Q    Q    Q     
--7-------------------|----------------6----|--5-------------------|
-------8--------------|--6------------------|-------6---------6----|
------------9----7----|--3--------3---------|--5---------7---------|
--7-------------------|---------------------|----------------------|
--0-------------------|---------------------|----------------------|
----------------------|--4------------------|--4-------------------|


  H        Q    Q       Q    Q    Q     Q       H.           E  E   
----------------8----|--7--------------------|--3------------------|
--5------------------|-------8---------------|---------------6--5--|
-----------5---------|------------9----10----|--3------------------|
--7------------------|--7--------------------|---------------------|
--0------------------|--0--------------------|---------------------|
---------------------|-----------------------|--4------------------|


  H        Q    Q                                                             
---------------------|
--3-------------6----|
--5--------5---------|
---------------------|
---------------------|
--4------------------|


Your Power
Tempo: 118
Capo on 1st fret

     Q    E  E  Q    E  E     H.           Q     
E||------------------------|--------------------|
B||------------------5--3--|--1-----------------|
G||------------------5--4--|--2------------0----|
D||------------------------|---------------2----|
A||------------------------|--------------------|
E||-------0--0--L----------|--1-----------------|


  Q    Q    Q.     E     W                   W                 
--0----1--------------|-------------------|-------------------|
--1---------3------1--|--1----------------|--L----------------|
--0----2--------------|--0----------------|--L----------------|
------------3------2--|--2----------------|--L----------------|
----------------------|--0----------------|--L----------------|
--3---------4---------|-------------------|-------------------|


Cliffs
Tempo: 62

      W                 
E||--------------------|
B||--11----------------|
G||--------------------|
D||---8----------------|
A||--------------------|
E||--------------------|


   W                   W                   W                 
--------------------|-------------------|-------------------|
--10----------------|-------------------|--6----------------|
--------------------|--6----------------|-------------------|
---7----------------|-------------------|--3----------------|
--------------------|--4----------------|-------------------|
--------------------|-------------------|-------------------|


  W                   W                   W                                     
-------------------|-------------------|-------------------|
--8----------------|-------------------|-------------------|
-------------------|--7----------------|--8----------------|
--5----------------|-------------------|-------------------|
-------------------|--5----------------|--6----------------|
-------------------|-------------------|-------------------|


The Chase
Tempo: 170

Guitar #1

                                     H        Q    Q               
E||-------|-------|-------|-------|---------------------|---------|
B||-------|-------|-------|-------|--3--------4---------|---------|
G||-------|-------|-------|-------|--4--------5---------|---------|
D||-------|-------|-------|-------|---------------------|---------|
A||-------|-------|-------|-------|---------------------|---------|
E||-------|-------|-------|-------|---------------------|---------|


  H.           E  E           H        Q    Q       Q    Q    Q    Q     
---------------------|-----|----------------3----|--2-------------------|
--4------------5-----|-----|--0-------------5----|--3----3--------------|
--5------------6-----|-----|--0--------0---------|-------0----4----2----|
---------------------|-----|---------------------|------------4----2----|
---------------------|-----|-----------2---------|----------------------|
---------------------|-----|---------------------|----------------------|


  H         E   E   E   E      E   E   E   E  E   E  E   E   
---------------------------|------------------8--10--8--10--|
---------------------------|--10--12--10--12----------------|
--5--------10--12--10--12--|--------------------------------|
--5------------------------|--------------------------------|
---------------------------|--------------------------------|
---------------------------|--------------------------------|


  H        Q    Q       Q    Q    Q    Q       E   E   E  E  Q    E  E   
----------------3----|--2-------------------|-----10--------------------|
--0-------------5----|--3----3--------------|---------10--6----------0--|
--0--------0---------|-------0----4----5----|--7-------------7----5--0--|
---------------------|------------4----5----|--7------------------7-----|
-----------2---------|----------------------|---------------------------|
---------------------|----------------------|---------------------------|


                           ^                                              
  E  E  E  E  Q    Q       W                   E  E  E   E  E   E  E  E   
-----8-----0-------8----|--7----------------|---------------7------------|
--------8-----8----8----|--7----------------|-----7--8--10-----10--8--7--|
--------------5---------|-------------------|--9-------------------------|
--7---------------------|--9----------------|----------------------------|
--8---------------------|-------------------|----------------------------|
------------------------|-------------------|----------------------------|


  ^                                                  ^                 
                        |----3----|                                    
  H.           E  E     Q    Q    Q    Q     Q       W                 
--5------------------|-----------------8----10----|--7----------------|
--6------------6-----|--6---------6---------------|--7----------------|
------------------5--|-------5--------------------|-------------------|
--7------------------|----------------------------|--9----------------|
---------------------|----------------------------|-------------------|
---------------------|----------------------------|-------------------|


                                     ^                                     
             |---3--|                                                      
  E   E   E  S   S  S E  E  E  E     W                                     
-----10------------------0-----2--|--0----------------|
---------10--8h-10p-8-7-----3-----|-------------------|
----------------------------------|--2----------------|
----------------------------------|--2----------------|
----------------------------------|-------------------|
----------------------------------|-------------------|

Guitar #2

     E  E  E  E  E  E  E  E     E  E  E  E  E  E  E  E     E  E  E  E  E  E  E  E   
E||--------------------------|--------------------------|--------------------------|
B||--------------------------|--------------------------|--------------------------|
G||--------------------------|--------------------------|--------------------------|
D||-----2--------0-----------|-----2--------0-----------|-----2--------0-----------|
A||--2--------2--------0--2--|--2--------2--------0--2--|--3--------3--------0--2--|
E||--0--------0--------------|--0--------0--------------|--1--------1--------------|


  E  E  E  E  E  E  E  E     E  E  E  E  E  E  E  E     E  E  E  E  E  E  E  E   
--------------------------|--------------------------|--------------------------|
--------------------------|--------------------------|--------------------------|
--------------------------|--------------------------|--------------------------|
-----2--------0-----------|-----2--------0-----------|-----2--------0-----------|
--3--------3--------0--2--|--2--------2--------0--2--|--2--------2--------0--2--|
--1--------1--------------|--0--------0--------------|--0--------0--------------|


  E  E  E  E  E  E  E  E     E  E  E  E  E  E  E  E     E  E  E  E  E  E  E  E   
--------------------------|--------------------------|--------------------------|
--------------------------|--------------------------|--------------------------|
--------------------------|--------------------------|--------------------------|
-----2--------0-----------|-----2--------0-----------|-----2--------0-----------|
--3--------3--------0--2--|--3--------3--------0--2--|--2--------2--------0--2--|
--1--------1--------------|--1--------1--------------|--0--------0--------------|


  E  E  E  E  E  E  E  E     E  E  E  E  E  E  E  E     E  E  E  E  E  E  E  E   
--------------------------|--------------------------|--------------------------|
--------------------------|--------------------------|--------------------------|
--------------------------|--------------------------|--------------------------|
-----2--------0-----------|-----2--------0-----------|-----2--------0-----------|
--2--------2--------0--2--|--3--------3--------0--2--|--3--------3--------0--2--|
--0--------0--------------|--1--------1--------------|--1--------1--------------|


  E  E  E  E  E  E  E  E     E  E  E  E  E  E  E  E     E  E  E  E  E  E  E  E   
--------------------------|--------------------------|--------------------------|
--------------------------|--------------------------|--------------------------|
--------------------------|--------------------------|--------------------------|
-----2--------0-----------|-----2--------0-----------|-----2--------0-----------|
--2--------2--------0--2--|--2--------2--------0--2--|--3--------3--------0--2--|
--0--------0--------------|--0--------0--------------|--1--------1--------------|


  E  E  E  E  E  E  E  E     E  E  E  E  E  E  E  E     E  E  E  E  E  E  E  E   
--------------------------|--------------------------|--------------------------|
--------------------------|--------------------------|--------------------------|
--------------------------|--------------------------|--------------------------|
-----2--------0-----------|-----2--------0-----------|-----2--------0-----------|
--3--------3--------0--2--|--2--------2--------0--2--|--2--------2--------0--2--|
--1--------1--------------|--0--------0--------------|--0--------0--------------|


  E  E  E  E  E  E  E  E     E  E  E  E  E  E  E  E     E  E  E  E  E  E  E  E   
--------------------------|--------------------------|--------------------------|
--------------------------|--------------------------|--------------------------|
--------------------------|--------------------------|--------------------------|
-----2--------0-----------|-----2--------0-----------|-----2--------0-----------|
--3--------3--------0--2--|--3--------3--------0--2--|--2--------2--------0--2--|
--1--------1--------------|--1--------1--------------|--0--------0--------------|


  E  E  E  E  E  E  E  E     E  E  E  E  E  E  E  E     E  E  E  E  E  E  E  E         
--------------------------|--------------------------|--------------------------|
--------------------------|--------------------------|--------------------------|
--------------------------|--------------------------|--------------------------|
-----2--------0-----------|-----2--------0-----------|-----2--------0-----------|
--2--------2--------0--2--|--3--------3--------0--2--|--3--------3--------0--2--|
--0--------0--------------|--1--------1--------------|--1--------1--------------|


Abril 2012
Tempo: 170

Guitar #1

      E   E  E  Q     E  E  E      E   E  E  Q     E  E  E   
E||---7--12----------12--------|---7--12----------12--------|
B||---8---------8--------------|---8---------8--------------|
G||---9---------------------7--|---9---------------------7--|
D||--10------------------------|--10------------------------|
A||----------------------------|----------------------------|
E||----------------------------|----------------------------|


  E  Q    S S E  Q    E     E  Q    S S E  Q    E   
--6---------9------------|--6---------9------------|
--7--7----6------7-------|--7--7----6------7-------|
--8-------------------6--|--8-------------------6--|
--9----------------------|--9----------------------|
-------------------------|-------------------------|
-------------------------|-------------------------|


   E   E  E  Q     E  E  E      E   E  E  Q     E  E  E   
---7--12----------12--------|---7--12----------12--------|
---8---------8--------------|---8---------8--------------|
---9---------------------7--|---9---------------------7--|
--10------------------------|--10------------------------|
----------------------------|----------------------------|
----------------------------|----------------------------|


  E  Q    S S E  Q    E     E  Q    S S E  Q    E   
--6---------9------------|--6---------9------------|
--7--7----6------7-------|--7--7----6------7-------|
--8-------------------6--|--8-------------------6--|
--9----------------------|--9----------------------|
-------------------------|-------------------------|
-------------------------|-------------------------|


  E  Q    S S E.  E.  T  T  T T    E  Q    S S E.  E.  T  T  T T  
--5---------8-----------------0-|--5---------8-----------------0-|
--6--6----5-------6---6h-8p-6---|--6--6----5-------6---6h-8p-6---|
--7-----------------------------|--7-----------------------------|
--8-----------------------------|--8-----------------------------|
--------------------------------|--------------------------------|
--------------------------------|--------------------------------|


  E  Q    S  S E    E  E  E     E  Q    S  S E    E  E  E        
--4--0------------5g4--------|--4--0------------5g4--------|
--5-------4h-5------------0--|--5-------4h-5------------0--|
--6--------------------------|--6--------------------------|
--7--------------------------|--7--------------------------|
-----------------------------|-----------------------------|
-----------------------------|-----------------------------|

Guitar #2

     E  S E  S S S S  S S S E   E     E  S E  S S S S  S S S E   E     E  S E  S S S S  S S S E   E   
E||--------------------------------|--------------------------------|--------------------------------|
B||--------------------------------|--------------------------------|--------------------------------|
G||--------------------------------|--------------------------------|--------------------------------|
D||----------2---------------------|----------2---------------------|----------4---------------------|
A||-------0----2---0h-2-2---0h--2--|-------0----2---0h-2-2---0h--2--|-------2----4---2h-4-4---2h--4--|
E||--0-----------------------------|--0-----------------------------|--2-----------------------------|


  E  S E  S S S S  S S S E   E     E  S E  S S S S  S S S E   E     E  S E  S S S S  S S S E   E   
--------------------------------|--------------------------------|--------------------------------|
--------------------------------|--------------------------------|--------------------------------|
--------------------------------|--------------------------------|--------------------------------|
----------4---------------------|----------2---------------------|----------2---------------------|
-------2----4---2h-4-4---2h--4--|-------0----2---0h-2-2---0h--2--|-------0----2---0h-2-2---0h--2--|
--2-----------------------------|--0-----------------------------|--0-----------------------------|


  E  S E  S S S S  S S S E   E     E  S E  S S S S  S S S E   E     E  S E  S S S S  S S S E   E   
--------------------------------|--------------------------------|--------------------------------|
--------------------------------|--------------------------------|--------------------------------|
--------------------------------|--------------------------------|--------------------------------|
----------4---------------------|----------4---------------------|----------3---------------------|
-------2----4---2h-4-4---2h--4--|-------2----4---2h-4-4---2h--4--|-------1----3---1h-3-3---1h--3--|
--2-----------------------------|--2-----------------------------|--1-----------------------------|


  E  S E  S S S S  S S S E   E     E  S E  S S S S  S S S E   E     E  S E  S S S S  S S S E   E   
--------------------------------|--------------------------------|--------------------------------|
--------------------------------|--------------------------------|--------------------------------|
--------------------------------|--------------------------------|--------------------------------|
----------3---------------------|----------2---------------------|----------2---------------------|
-------1----3---1h-3-3---1h--3--|-------0----2---0h-2-2---0h--2--|-------0----2---0h-2-2---0h--2--|
--1-----------------------------|--0-----------------------------|--0-----------------------------|


Weird Birds
Tempo: 73

                            PM   PM   PM PM PM PM PM PM PM PM PM                             
     Q    S  S   E   Q.      T    T    T    T  T  T  T  T  T  T  T  T E   S S  S  S   E     Q      
E||-----------------------------------------------------------------------------------------------|
B||-------------------------13pb-13pb-13pb-13-15-14-13-15-14-13-15-13-----------------------------|
G||-------5s-2s-11b-------------------------------------------------------------------------------|
D||-----------------------------------------------------------------------------------------------|
A||---------------------------------------------------------------------------------------/12/----|
E||-------------------------------------------------------------------8s--5-8s-5s-8s-11/----------|


                                 PM   PM   PM PM PM PM PM PM PM                              
                                                                    |----5----| |----5---|   
  Q.     E   E    Q     E   T    T    T    T  T  T  T  T  T  T E.   S S  S S  S S  S S   E   
-------------------------------------------------------------------12---12---11---11---7g9--|
---------------------------13pb-13pb-13pb-13-15-14-13-15-14-13------------------------------|
----------------------------------------------------------------------9----9----8----8------|
---------7s--2s--12/------------------------------------------------------------------------|
--------------------------------------------------------------------------------------------|
--------------------------------------------------------------------------------------------|


  H         W                H          
--------------------------------------||
--------------------------------------||
--9\----------------------------------||
--------------------------------------||
--------------------------------------||
--------------------------------------||



Duration Legend
---------------
W - whole
H - half
Q - quarter
E - 8th
S - 16th
T - 32nd
X - 64th
. - note dotted
|-n-|  - n-tuplets


Tablature Legend
----------------
L - tied note
x - dead note
g - grace note
(n) - ghost note
> - accentuded note
NH - natural harmonic
AH - artificial harmonic
TH - tapped harmonic
SH - semi harmonic
PH - pitch harmonic
h - hammer on
p - pull off
b - bend
br - bendRelease
pb - preBend
pbr - preBendRelease
brb - bendReleaseBend
S - shift slide
s - legato slide
/ -  slide into from below or out of upwards
\ -  slide into from above or out of downwards
~ - vibrato
W - wide vibrato
tr - trill
TP - tremolo picking
T - tapping
S - slap
P - pop
< - fade in
^ - brush up
v - brush down
Login or Register to remove this ad.