Ads

Before the Story (Deltarune) Guitar Tab

Submitted: Nov 18, 2021 by JordanVS (Last updated: Nov 18, 2021)

5
Average: 5 (3 votes)
Download | Listen
Game: Deltarune
Composer(s): Toby Fox
Style: Arrangement, Fingerstyle

AutoScroll: Slow | Medium | Fast
Before the Story                                 
Deltarune
Toby Fox
JordanVS

Tempo: 65 ~ 4/4
*Capo on 6th fret

Download link: https://www.mediafire.com/file/46fpvf9mgufmqy1/Before_the_Story_-_Deltar...


     E  E  H.              E  E  H.              E  E  H.            
E||---------------------|---------------------|---------------------|
B||---------------------|---------------------|--------0------------|
G||--------0------------|--------2------------|---------------------|
D||---------------------|-----0---------------|-----2---------------|
A||-----3---------------|---------------------|--0------------------|
E||--1------------------|--3------------------|---------------------|


        ^                                       ^                    
  E  E  Q    Q    Q       E  E  H.              E  E  H        Q     
--------0--------------|--3------------------|--5-------------------|
--------1----3----1----|---------------------|-----------------1----|
-----------------------|--------0------------|--------2-------------|
-----2-----------------|---------------------|-----0----------------|
--0--------------------|-----3---------------|----------------------|
-----------------------|--1------------------|--3-------------------|


                        ^                                            
  E  E  H.              E  E  H.                E  E  Q    H         
---------------------|---------------------||---------3-------------|
--0------------------|--1------------------||--------------3--------|
--------4------------|--------5------------||*--0-----0-------------|
-----2---------------|-----2---------------||*----------------------|
--0------------------|--0------------------||------3----------------|
---------------------|---------------------||---1-------------------|


  E  E  Q    H           E  E  Q    Q.     E     E  E  Q    H           
--------3-------------|-------------3------5--|--3--------------------||
--1-------------------|--------0--------------|--------3----1---------||
--------2----0--------|--0--------------------|----------------------*||
-----0----------------|-----2-----------------|-----2----------------*||
----------------------|--0--------------------|--0--------------------||
--3-------------------|-----------------------|-----------------------||


   S S S S S S S S S S S S Q       S S S S S S S S S S S S Q     
-----------3---3----------------|----------3---3----------------|
-------------------3---3---L----|--1---1------------------------|
*--0---0-----0---0--------------|------------2---2-0---0---L----|
*--------------------3---3-L----|----0---0-----------0---0-L----|
-----3---3----------------------|-------------------------------|
---1----------------------------|--3----------------------------|

                                1.
  S S S S S S S S S S S S E  E     S S S S S S S S S S S S Q       
------------------3---3---L--5--|--3---3-------------------------||
----------0---0-----0---0-L-----|----------3---3---1---1---L-----||
--0---0-----0---0---------------|------------0---0---0---0-L----*||
----2---2-----------------------|----2---2----------------------*||
--0-----------------------------|--0-----------------------------||
--------------------------------|--------------------------------||

2.
  E  E  Q    H          
--3-----0-------------||
--------3----1--------||
----------------------||
-----2----------------||
--0-------------------||
----------------------||




Duration Legend
---------------
W - whole
H - half
Q - quarter
E - 8th
S - 16th
T - 32nd
X - 64th
. - note dotted
|-n-|  - n-tuplets


Tablature Legend
----------------
L - tied note
x - dead note
g - grace note
(n) - ghost note
> - accentuded note
NH - natural harmonic
AH - artificial harmonic
TH - tapped harmonic
SH - semi harmonic
PH - pitch harmonic
h - hammer on
p - pull off
b - bend
^ - brush up
v - brush down
Login or Register to remove this ad.

2 comments on Before the Story

Easy and enjoyable tab as

Easy and enjoyable tab as always. Are you going to tab some Chapter 2 tracks?

The plan is to finish the

The plan is to finish the entire chapter 1 soundtrack. Then I'll start uploading songs from both chapter 2 and undertale.