Ads

ANOTHER HIM (Deltarune) Guitar Tab

Submitted: Sep 27, 2021 by JordanVS (Last updated: Oct 04, 2021)

5
Average: 5 (1 vote)
Download | Listen
Game: Deltarune
Composer(s): Toby Fox
Style: Arrangement, Fingerstyle

AutoScroll: Slow | Medium | Fast
ANOTHER HIM
Deltarune
Toby Fox
JordanVS

Tempo: 110 ~ 4/4

Downlaod Link: https://www.mediafire.com/file/1l0r4ff2ichf8aq/ANOTHER_HIM_-_Deltarune.z...

     W                   W                   W                   W                   Q    Q    Q    Q     
E||-------------------|-------------------|-------------------|-------------------|-----------------8----|
B||--5----------------|--L----------------|--5----------------|-------------------|-------5----6---------|
G||--5----------------|--L----------------|--L----------------|--L----------------|----------------------|
D||--7----------------|--L----------------|--L----------------|--L----------------|----------------------|
A||--8----------------|--L----------------|--L----------------|--L----------------|-------8----8---------|
E||-------------------|-------------------|-------------------|-------------------|----------------------|


  Q    Q    Q    Q       Q    Q    Q    Q       Q    Q    Q    Q       Q    Q    Q    Q     
--L-------------------|-----------------8----|--L-------------------|-----------------6----|
-------6----5---------|-------5----6---------|-------6----5---------|--8----L--------------|
----------------------|----------------------|----------------------|--7----7----8---------|
----------------------|----------------------|----------------------|--8--------------L----|
--L----8----8---------|--L----8----8---------|--L----8----8---------|--6----6----6---------|
----------------------|----------------------|----------------------|----------------------|


  Q    Q    Q    Q       Q    Q    Q    Q       Q    Q    Q    Q       Q    Q    Q    Q     
--L-------------------|-----------------6----|--L-------------------|-----------------4----|
----------------------|----------------------|----------------------|--1----1----2---------|
-------8----7---------|-------7----8---------|-------8----7---------|--1-------------------|
----------------------|----------------------|----------------------|--3--------------L----|
--L----6----6---------|--L----6----6---------|--L----6----6---------|--4----4----4---------|
----------------------|----------------------|----------------------|----------------------|


  Q    Q    Q    Q       Q    Q    Q    Q       Q    Q    Q    Q       Q    Q    Q    Q     
--L-------------------|-----------------6----|--L-------------------|-----------------7----|
-------2----1---------|--8----L--------------|----------------------|--4----4----5---------|
----------------------|--7----7----8---------|-------8----7---------|--4-------------------|
----------------------|--8--------------L----|----------------------|--6--------------L----|
--L----4----4---------|--6----6----6---------|--L----6----6---------|--7----7----7---------|
----------------------|----------------------|----------------------|----------------------|


  Q    Q    Q    Q       Q    Q    Q    Q       Q    Q    Q    Q      
--L-------------------|-----------------9----|--L-------------------||
-------5----4---------|--6----6----7---------|-------7----6---------||
----------------------|--6-------------------|----------------------||
----------------------|--8--------------L----|----------------------||
--L----7----7---------|--9----9----9---------|--L----9----9---------||
----------------------|----------------------|----------------------||




Duration Legend
---------------
W - whole
H - half
Q - quarter
E - 8th
S - 16th
T - 32nd
X - 64th
. - note dotted
|-n-|  - n-tuplets


Tablature Legend
----------------
L - tied note
x - dead note
g - grace note
(n) - ghost note
> - accentuded note
NH - natural harmonic
AH - artificial harmonic
TH - tapped harmonic
SH - semi harmonic
PH - pitch harmonic
^ - brush up
v - brush down
Login or Register to remove this ad.