Ads

Light's Theme (Death Note) Guitar Tab

Submitted: Jan 24, 2013 by scarecrowlol

5
Average: 5 (16 votes)
Download | Listen
Game: Death Note
Composer(s): Hideki Taniuchi, Yoshihisa Hirano
Style: Arrangement, Fingerstyle

This song is also called ライトのテーマ

AutoScroll: Slow | Medium | Fast
Title: Light's Theme 
SubTitle: Death Note
Artist: Yoshihisa Hirano, Hideki Taniuchi
Tabber: Mitch Jackson
Tempo = 130
T/S = 4/4


   (--**CAPO 5**--)


     E  E  E  E  E  E  E  E       E  E  E  E  E  E  E  E       E  E  E  E  E  E  E  E       E  E  E  E  E  E  E  S S                                                       
E |-----------------------0----|----------------------------|-----------------------0----|----------------------------|
B |-----0--------1-------------|-----0--------1--------3----|-----0--------1-------------|-----0--------1--------3h0--|
G |--------2--------2----------|--------2--------2----------|--------2--------2----------|--------2--------2----------|
D |-----------2--------2-------|-----------2--------2-------|-----------2--------2-------|-----------2--------2-------|
A |--0-------------------------|--0-------------------------|--0-------------------------|--0-------------------------|
E |----------------------------|----------------------------|----------------------------|----------------------------|


                             
     E  E  E  E  E  E  E  E       E  E  E  E  E  E  E  E       E  E  E  E  E  E  E  E       E  E  E  E  E  E  E  E                                                    
  |-----------------------0----|----------------------------|-----------------------0----|----------------------------| 
  |-----0--------1-------------|-----0--------1--------3----|-----0--------1-------------|-----0--------1--0----------|
  |--------0--------0----------|--------0--------0----------|--------0--------0----------|--------0-----------0-------|
  |-----------2--------2-------|-----------2--------2-------|-----------2--------2-------|-----------2-----------2----|
  |----------------------------|----------------------------|----------------------------|----------------------------|
  |--0-------------------------|--0-------------------------|--0-------------------------|--0-------------------------|

                                                          

     E  E  E  E  E  E  E  E       E  E  E  E  E  E  E  E       E  E  E  E  E  E  E  E       E  E  E  E  E  E  E  E                                                            
  |--5--------------------5----|----------------------------|-----------------------0----|-----------------5-----5----|
  |-----0--------1-------------|-----0--------1--------3----|-----0--------1-------------|-----0--------1-------------|
  |--------2--------2----------|--------2--------2----------|--------2--------2----------|--------2-------------------|
  |-----------2--------2-------|-----------2--------2-------|-----------2--------2-------|-----------2--------2-------|
  |--0-------------------------|--0-------------------------|--0-------------------------|--0-------------------------|
  |----------------------------|----------------------------|----------------------------|----------------------------|


                                                          
     E  E  E  E  E  E  E  E       E  E  E  E  E  E  E  E       E  E  E  E  E  E  E  E       E  E  E  E  E  E  E  S S                                                           
  |--4--------------------4----|----------------------------|-----------------------0----|----------------------------|
  |-----0--------0-------------|-----0--------0--------3----|-----0--------0-------------|-----0--------0--------3h0--|
  |--------1--------1----------|--------1--------1----------|--------1--------1----------|--------1--------1----------|
  |-----------2--------2-------|-----------2--------2-------|-----------2--------2-------|-----------2--------2-------|
  |--0-------------------------|--0-------------------------|--0-------------------------|--0-------------------------|
  |----------------------------|----------------------------|----------------------------|----------------------------|

                             

     E  E  E  E  E  E  E  E       E  E  E  E  E  E  E  E       E  E  E  E  E  E  E  E       E  E  E  E  E  E  E  E                                                            
  |--5--------------------5----|----------------------------|-----------------------0----|-----------5-----5-----5----|
  |-----0--------1-------------|-----0--------1--------3----|-----0--------1-------------|-----0--------1-------------|
  |--------2--------2----------|--------2--------2----------|--------2--------2----------|--------2-------------------|
  |-----------2--------2-------|-----------2--------2-------|-----------2--------2-------|--------------------2-------|
  |--0-------------------------|--0-------------------------|--0-------------------------|--0-------------------------|
  |----------------------------|----------------------------|----------------------------|----------------------------|

                                                          

     E  E  E  E  E  E  E  E       E  E  E  E  E  E  E  E       E  E  E  E  E  E  E  E       E  E  E  E  E  E  E  E                                                            
  |--4--------------------4----|----------------------------|-----------------------0----|----------------------------|
  |-----0--------0-------------|-----0--------0--------3----|-----0--------0-------------|-----0--------0--------0----|
  |--------1--------1----------|--------1--------1----------|--------1--------1----------|--------1--------2----------|
  |-----------2--------2-------|-----------2--------2-------|-----------2--------2-------|-----------2--------2-------|
  |--0-------------------------|--0-------------------------|--0-------------------------|--0-------------------------|
  |----------------------------|----------------------------|----------------------------|----------------------------|

                                                          
   
     E  E  E  E  E  E  E  E       E  E  E  E  E  E  E  E       E  E  E  E  E  E  E  E       E  E  E  E  E  E  E  E                                                        
  |-----------------------0----|-----------------------0----|-----------------------0----|-----------------------0----|
  |--1--1--------1-------------|-----1--------1-------------|--0--0--------0-------------|-----0--------0--------0----|
  |--------2--------2----------|--------2--------2----------|--------0--------0----------|--------0--------0----------|
  |-----------2--------2-------|-----------2--------2-------|-----------2--------2-------|-----------2--------2-------|
  |----------------------------|----------------------------|----------------------------|----------------------------|
  |--1-------------------------|--1-------------------------|--0-------------------------|--0-------------------------|

                                                          

     E  E  E  E  E  E  E  E       E  E  E  E  E  E  E  E       E  E  E  E  E  E  E  E       E  E  E  H           E                                                            
  |-----------------------0----|-----------------------0----|----------------------------|----------------------------|
  |--1--1--------1-------------|-----1--------1--3----------|--0--0--------0-------------|-----0----------------------|
  |--------2--------2----------|--------2-------------------|--------0--------0----------|--------0-------------------|
  |-----------2--------2-------|-----------2--------2-------|-----------2--------2-------|-----------2L----------L----|
  |----------------------------|----------------------------|-----------------------2----|----------------------------|
  |--1-------------------------|--1-------------------------|--0-------------------------|--0-------------------------|

                                                          
                                                                                                        (Gradually Get Louder)
     E  E  E  E  E  E  E  E       E  E  E  E  E  E  E  E       E  E  E  E  E  E  E  E       E  E  E  E  E  E  E  E                                                            
  |--5-----------3-------------|--0-------------------------|--0-----------3-------------|--0-----------0-------------|
  |-----0-----------0----------|-----0--------3--0----------|-----0-----------0----------|-----0-----------3-----3----|
  |--------2-----------2-------|--------2-----------2-------|--------2-----------2-------|--------2-----------2-------|
  |-----------2-----------2----|-----------2-----------2----|-----------2-----------2----|-----------2-----------2----|
  |--0-------------------------|--0-------------------------|--0-------------------------|--0-------------------------|
  |----------------------------|----------------------------|----------------------------|----------------------------|

                                                                                    
     ^     ^  v  ^     ^  v          v  ^  v     v  ^  v       ^        v  ^     v  ^                  (Gradually Get Quieter)
     Q     E  E  Q     E  E       E  E  E  Q     E  E  E       Q.       E  Q     E  E       H           E  E  Q
  |--0--------0--3--------3L---|--L--3-----3-----3-----3----|--3--------3--3-----3--3L---|--L-----------5--5--5-------|
  |--0--------0--0--------0L---|--L--0-----0-----0-----0----|--0--------0--0-----0--3L---|--L-------------------------|
  |--0--------0--0--------0L---|--L--0-----0-----0-----0----|--0--------0--0-----0--0L---|--L-------------------------|
  |--2-----2-----2-----2-------|--------2-----------2-------|--2-----------2--------2L---|--L-------------------------|
  |--2-----2-----2-----2-------|--------2-----------2-------|--2-----------2--------2L---|--L-------------------------|
  |--0-----0-----0-----0-------|--------0-----------0-------|--0-----------0--------0L---|--L-------------------------|



     E  E  E  E  E  E  E  E       E  E  E  E  E  E  E  E       E  E  E  E  E  E  E  E       E  E  E  E  E  E  E  S S                                                       
  |-----------------------0----|----------------------------|-----------------------0----|----------------------------|
  |-----0--------1-------------|-----0--------1--------3----|-----0--------1-------------|-----0--------1--------3h0--|
  |--------2--------2----------|--------2--------2----------|--------2--------2----------|--------2--------2----------|
  |-----------2--------2-------|-----------2--------2-------|-----------2--------2-------|-----------2--------2-------|
  |--0-------------------------|--0-------------------------|--0-------------------------|--0-------------------------|
  |----------------------------|----------------------------|----------------------------|----------------------------|


                             
     E  E  E  E  E  E  E  E       E  E  E  E  E  E  E  E       E  E  E  E  E  E  E  E       E  E  E  E  E  E  E  E                                                    
  |-----------------------0----|----------------------------|-----------------------0----|----------------------------| 
  |-----0--------1-------------|-----0--------1--------3----|-----0--------1-------------|-----0--------1--0----------|
  |--------0--------0----------|--------0--------0----------|--------0--------0----------|--------0-----------0-------|
  |-----------2--------2-------|-----------2--------2-------|-----------2--------2-------|-----------2-----------2----|
  |----------------------------|----------------------------|----------------------------|----------------------------|
  |--0-------------------------|--0-------------------------|--0-------------------------|--0-------------------------|

                                                          

     E  E  E  E  E  E  E  E       E  E  E  E  E  E  E  E       E  E  E  E  E  E  E  E       E  E  E  E  E  E  E  E                                                            
  |--5--------------------5----|----------------------------|-----------------------0----|-----------------5-----5----|
  |-----0--------1-------------|-----0--------1--------3----|-----0--------1-------------|-----0--------1-------------|
  |--------2--------2----------|--------2--------2----------|--------2--------2----------|--------2-------------------|
  |-----------2--------2-------|-----------2--------2-------|-----------2--------2-------|-----------2--------2-------|
  |--0-------------------------|--0-------------------------|--0-------------------------|--0-------------------------|
  |----------------------------|----------------------------|----------------------------|----------------------------|


                                                          
     E  E  E  E  E  E  E  E       E  E  E  E  E  E  E  E       E  E  E  E  E  E  E  E       E  E  E  E  E  E  E  S S                                                           
  |--4--------------------4----|----------------------------|-----------------------0----|----------------------------|
  |-----0--------0-------------|-----0--------0--------3----|-----0--------0-------------|-----0--------0--------3h0--|
  |--------1--------1----------|--------1--------1----------|--------1--------1----------|--------1--------1----------|
  |-----------2--------2-------|-----------2--------2-------|-----------2--------2-------|-----------2--------2-------|
  |--0-------------------------|--0-------------------------|--0-------------------------|--0-------------------------|
  |----------------------------|----------------------------|----------------------------|----------------------------|

                             

     E  E  E  E  E  E  E  E       E  E  E  E  E  E  E  E       E  E  E  E  E  E  E  E       E  E  E  E  E  E  E  E                                                            
  |--5--------------------5----|----------------------------|-----------------------0----|-----------5-----5-----5----|
  |-----0--------1-------------|-----0--------1--------3----|-----0--------1-------------|-----0--------1-------------|
  |--------2--------2----------|--------2--------2----------|--------2--------2----------|--------2-------------------|
  |-----------2--------2-------|-----------2--------2-------|-----------2--------2-------|--------------------2-------|
  |--0-------------------------|--0-------------------------|--0-------------------------|--0-------------------------|
  |----------------------------|----------------------------|----------------------------|----------------------------|

                                                          
                                                                                                       (Gradually Get Louder)
     E  E  E  E  E  E  E  E       E  E  E  E  E  E  E  E       E  E  E  E  E  E  E  E       E  E  E  E  E  E  E  E                                                            
  |--4--------------------4----|----------------------------|-----------------------0----|----------------------------|
  |-----0--------0-------------|-----0--------0--------3----|-----0--------0-------------|-----0--------0--------0----|
  |--------1--------1----------|--------1--------1----------|--------1--------1----------|--------1--------2----------|
  |-----------2--------2-------|-----------2--------2-------|-----------2--------2-------|-----------2--------2-------|
  |--0-------------------------|--0-------------------------|--0-------------------------|--0-------------------------|
  |----------------------------|----------------------------|----------------------------|----------------------------|

                                   
   
     E  E  E  E  E  E  E  E       E  E  E  E  E  E  E  E       E  E  E  E  E  E  E  E       E  E  E  E  E  E  E  E                                                            
  |-----------------------0----|-----------------------0----|-----------------------0----|-----------------------0----|
  |--1--1--------1-------------|-----1--------1-------------|--0--0--------0-------------|-----0--------0--------0----|
  |--------2--------2----------|--------2--------2----------|--------0--------0----------|--------0--------2----------|
  |-----------2--------2-------|-----------2--------2-------|-----------2--------2-------|-----------2--------2-------|
  |----------------------------|----------------------------|----------------------------|----------------------------|
  |--1-------------------------|--1-------------------------|--0-------------------------|--0-------------------------|

                                                          

     E  E  E  E  E  E  E  E       E  E  E  E  E  E  E  E       E  E  E  E  E  E  E  E       E  E  E  E  E  E  E  E                                                            
  |-----------------------0----|-----------------------0----|-----------------------0----|----------------------------|
  |--1--1--------1-------------|-----1--------1--3----------|--0--0--------0-------------|-----0--------0--------0----|
  |--------2--------2----------|--------2-------------------|--------0--------0----------|--------0--------2----------|
  |-----------2--------2-------|-----------2--------2-------|-----------2--------2-------|-----------2--------2-------|
  |----------------------------|----------------------------|----------------------------|----------------------------|
  |--1-------------------------|--1-------------------------|--0-------------------------|--0-------------------------|

                                                          

     E  E  E  E  E  E  E  E       E  E  E  E  E  E  E  E       E  E  E  E  E  E  E  E       E  E  E  E  E  E  E  E                                                            
  |-----------------------0----|-----------------------0----|-----------------------0----|-----------------------0----|
  |--1--1--------1-------------|-----1--------1-------------|--0--0--------0-------------|-----0--------0--------0----|
  |--------2--------2----------|--------2--------2----------|--------0--------0----------|--------0--------2----------|
  |-----------2--------2-------|-----------2--------2-------|-----------2--------2-------|-----------2--------2-------|
  |----------------------------|----------------------------|----------------------------|----------------------------|
  |--1-------------------------|--1-------------------------|--0-------------------------|--0-------------------------|

                                                          
                                                                                            ^          (Noraml Volume)
     E  E  E  E  E  E  E  E       E  E  E  E  E  E  E  E       E  E  E  E  E  E  E  E       W                                                           
  |-----------------------0----|-----------------------0----|----------------------------|--0-------------------------|
  |--1--1--------1-------------|-----1--------1--3----------|--0--0--------0-------------|--0-------------------------|
  |--------2--------2----------|--------2-------------------|--------0--------0----------|--0-------------------------|
  |-----------2--------2-------|-----------2--------2-------|-----------2--------2-------|--2-------------------------|
  |----------------------------|----------------------------|-----------------------2----|--2-------------------------|
  |--1-------------------------|--1-------------------------|--0-------------------------|--0-------------------------|


                                                                                                       (Gradually Get Louder)
     E  E  E  E  E  E  E  E       E  E  E  E  E  E  E  E       E  E  E  E  E  E  E  E       E  E  E  E  E  E  E  E                                                                   
  |--5-----------3-------------|--0-------------------------|--0-----------3-------------|--0-----------0-------------|
  |-----0-----------0----------|-----0--------3--0----------|-----0-----------0----------|-----0-----------3-----3----|
  |--------2-----------2-------|--------2-----------2-------|--------2-----------2-------|--------2-----------2-------|
  |-----------2-----------2----|-----------2-----------2----|-----------2-----------2----|-----------2-----------2----|
  |--0-------------------------|--0-------------------------|--0-------------------------|--0-------------------------|
  |----------------------------|----------------------------|----------------------------|----------------------------|

                                                                                    
     ^     ^  v  ^     ^  v       ^  v  ^  v     v  ^  v       ^     ^  v  ^     v  ^                  (Gradually Get Quieter)
     Q     E  E  Q     E  E       E  E  E  Q     E  E  E       Q     E  E  Q     E  E       H           E  E  Q                        
  |--0--------0--3--------3----|-----3-----3-----3-----3----|--3--------3--3-----3--3L---|--L-----------5--5--5-------|
  |--0--------0--0--------0----|-----0-----0-----0-----0----|--0--------0--0-----0--3L---|--L-------------------------|
  |--0--------0--0--------0----|-----0-----0-----0-----0----|--0--------0--0-----0--0L---|--L-------------------------|
  |--2-----2-----2-----2-------|--2-----2-----------2-------|--2-----2-----2--------2L---|--L-------------------------|
  |--2-----2-----2-----2-------|--2-----2-----------2-------|--2-----2-----2--------2L---|--L-------------------------|
  |--0-----0-----0-----0-------|--0-----0-----------0-------|--0-----0-----0--------0L---|--L-------------------------|

 

     E  E  E  E  E  E  E  E       E  E  E  E  E  E  E  E       E  E  E  E  E  E  E  E       E  E  E  E  E  E  E  S S                                                           
 ||-----------------------0----|----------------------------|-----------------------0----|----------------------------|
 ||-----0--------1-------------|-----0--------1--------3----|-----0--------1-------------|-----0--------1--------3h0--|
 ||o-------2--------2----------|--------2--------2----------|--------2--------2----------|--------2--------2----------|
 ||o----------2--------2-------|-----------2--------2-------|-----------2--------2-------|-----------2--------2-------|
 ||--0-------------------------|--0-------------------------|--0-------------------------|--0-------------------------|
 ||----------------------------|----------------------------|----------------------------|----------------------------|

                                                          
                                                                                         |-------FIRST ENDING-------->
     E  E  E  E  E  E  E  E       E  E  E  E  E  E  E  E       E  E  E  E  E  E  E  E       E  E  E  E  E  E  E  E                                                            
  |-----------------------0----|----------------------------|-----------------------0----|---------------------------||
  |-----0--------1-------------|-----0--------1--------3----|-----0--------1-------------|-----0--------1--------3---||
  |--------0--------0----------|--------0--------0----------|--------0--------0----------|--------0--------0--------o||
  |-----------2--------2-------|-----------2--------2-------|-----------2--------2-------|-----------2--------2-----o||
  |----------------------------|----------------------------|----------------------------|---------------------------||
  |--0-------------------------|--0-------------------------|--0-------------------------|--0------------------------||

                                                          
  |------SECOND ENDING-------->   ^
     E  E  E  E  E  E  E  E       W                            W                               
  |----------------------------|--0L------------------------|--L-------------------------||
  |-----0--------1--0----------|--0L------------------------|--L-------------------------||
  |--------0-----------0-------|--2L------------------------|--L-------------------------||
  |-----------2-----------2----|--2L------------------------|--L-------------------------||
  |----------------------------|--0L------------------------|--L-------------------------||
  |--0-------------------------|--0L------------------------|--L-------------------------||

Login or Register to remove this ad.

3 comments on Light's Theme

Sick!

5

I love gametabs!! Thank you for putting this on here man, in 2013 :)).

Your Welcome ;)

Your Welcome ;)

Cool!

5

This tab is great!! congratulations!