Mall Music 6 (Dead Rising) Guitar Tab

Submitted: Apr 16, 2015 by allstar99

0
Download | Listen
Game: Dead Rising
Composer(s): Hideki Okugawa, Marika Suzuki
Style: Transcription

AutoScroll: Slow | Medium | Fast
'Mall Music 6' [Dead Rising Official Soundtrack]

Game......................................................Dead Rising [Capcom]
Composer........................................................Hideki Okugawa
Tab..................................................................allstar99
Tuning.......................................................Standard [EADGBe]

*Time stamps are matched to Dead Rising Official Soundtrack*

Tablature Legend
----------------
/ - slide up
b - bend
pb - prebend
r - release

============================
0:00 RHYTHM
============================
E||------------------------------------------------------|
B||------------------------------------------------------|
G||------------------------------------------------------|
D||-----2b3r------------------------2b3r-----------------|
A||----------4pb5r--------5b7------------4pb5r--------5--|
E||--5--------------5--3---------5--------------5--3-----|


============================
0:10 LEAD [Ax2,B,Ax2,C,Ax5]
============================		
Listen to song when to play slides in Part A          Only play on last 5 A's
E||-----------------------------------------|        |-----------------------|
B||-----------------------------------------|        |-----------------------|
G||-----------/9--/6----6--0-----5--/7------|<-Part A|--6--4-----------------|
D||--------9------------------7-------------|        |-----------------------|
A||--0--7-----------------------------------|        |-----------------------|
E||-----------------------------------------|        |-----------------------|

E||--------------------------------------------------------------------------------------------|
B||--------------------------------------------------------------------------------------------|
G||-----------/6----------------------5-----------------------4--------------------------4-----|Part B
D||--------7------7----7--------5--7-----7--5----------5--/7-----6--4----------4--6--/6-----6--|
A||--0--7-----------------0--7-------------------0--7--------------------0--7------------------|
E||--------------------------------------------------------------------------------------------|

E||-----------------------------------------------------------------------------|
B||-----------------------------------------------------------------------------|
G||-----------7--9--7-------------------------------/9--7-----------------------|Part C
D||--------7-----------/9--7--5-----0------------9---------9--7----------5--/9--|
A||--0--7------------------------7---------0--7--------------------0--7---------|
E||-----------------------------------------------------------------------------|
Login or Register to remove this ad.