Mall Music 3 (Dead Rising) Guitar Tab

Submitted: Apr 20, 2015 by allstar99

0
Download | Listen
Game: Dead Rising
Composer(s): Hideki Okugawa, Marika Suzuki
Style: Transcription

AutoScroll: Slow | Medium | Fast
'Mall Music 6' [Dead Rising Official Soundtrack]

Game......................................................Dead Rising [Capcom]
Composer........................................................Hideki Okugawa
Tab..................................................................allstar99
Tuning.......................................................Standard [EADGBe]

*Time stamps are matched to Dead Rising Official Soundtrack*

Tablature Legend
----------------
p - pull off


0:00	
E||------------------------------------------------------|
B||------------------------------------------------------|
G||------10-9-------------9-7----------10-9--------------|
D||--7-8------8-------6-7-----7----7-8------8--10-9p8p7--|
A||----------------10------------------------------------|
E||------------------------------------------------------|

0:10
E||------------------------------------------------------|
B||-----------------------------------------------6------|
G||------10-9-------------9-7----------10-9-------5------|
D||--7-8------8-------6-7-----7----7-8------8-10--7--7-7-|
A||----------------10------------------------------------|
E||------------------------------------------------------|

0:20
E||------------------------------------------------------|
B||------------------------------------------------------|
G||-----------------------------------------5--9-----10--|
D||--5----5-4-5-7-------------5-----------7----10----10--|
A||---------------5----7----------8-7-8--------12----12--|
E||------------------------------------------------------|

0:30
E||-------------------------------------------13---------|
B||-------------------------11-13-11-------13-13---------|
G||----------------10-12-13----------13-12---------------|
D||--10---10-11------------------------------------------|
A||------------------------------------------------------|
E||-----8------------------------------------------------|
Login or Register to remove this ad.