Brock (Commander) (Dead Rising) Guitar Tab

Submitted: Jul 05, 2016 by allstar99

0
Download | Listen
Game: Dead Rising
Composer(s): Hideki Okugawa, Marika Suzuki
Style: Tapping, Transcription

This song is also called Brock Mason's Theme

AutoScroll: Slow | Medium | Fast
Brock (Commander) [Dead Rising Original Soundtrack]

Game......................................................Dead Rising [Capcom]
Composer........................................................Hideki Okugawa
Tab..................................................................allstar99
Tuning.......................................................Standard [EADGBe]

Tablature Legend
----------------
\ - slide down
/ - slide up
h - hammer on
p - pull off
b - bend
br - bend release
~ - vibrato
T - tapping
PM - palm mute

Intro riff [Repeat 4 times]
          PM PM PM PM PM PM        PM PM PM PM PM PM 
E||----------------------------------------------------|
B||----------------------------------------------------|
G||----------------------------------------------------|
D||--7----------------------5/--7----------------------|
A||--5----5--5--5--5--5--5--3/--5--5--5--5--5--5--5----|
E||----------------------------------------------------|

          PM PM PM PM PM PM                
E||----------------------------------------------------|
B||----------------------------------------------------|
G||----------------------------------------------------|
D||--7----------------------7/--8--5--7/--12\----------|
A||--5----5--5--5--5--5--5--5/--6--3--5/--10\----------|
E||----------------------------------------------------|


Chug the D
    PM PM PM PM PM PM PM PM PM PM PM PM PM PM PM   
E||-----------------------------------------------------|
B||-----------------------------------------------------|
G||-----------------------------------------------------|<-[Repeat until solo]
D||--7--------------------------------------------------|
A||--5-5--5--5--5--5--5--5--5--5--5--5--5--5--5--5------|
E||-----------------------------------------------------|


Solo
E||---------------------------------------8~------------|
B||--------------------------------8h9h11---------------|
G||-------------------------7h9h10----------------------|
D||------------------8h9h10-----------------------------|
A||-----------8h9h10------------------------------------|
E||--6h8h9h10-------------------------------------------|

E||--------8-------8------------8--------8------|
B||--11b13----11b13----11-11b13----11b13----11--|
G||---------------------------------------------|<-[Repeat a few times]
D||---------------------------------------------|
A||---------------------------------------------|
E||---------------------------------------------|
  
E||--8b10br8------------------|
B||-----------11p8h11---------|
G||---------------------------|
D||---------------------------|
A||---------------------------|
E||---------------------------|

E||-----------------------------------------------------|
B||-----------------------------------------------------|
G||--/7-10-7-9b10br9------9--7---7----------------------|
D||-------------------10-------8---10-7-10-8------------|
A||-----------------------------------------------------|
E||-----------------------------------------------------|

E||-----------------8---------8---------8---------8-----|
B||------------8h11----11b13-----11b13-----11b13--------|
G||-------7h10------------------------------------------|
D||--8h10-----------------------------------------------|
A||-----------------------------------------------------|
E||-----------------------------------------------------|

E||--------10-------10----------10-------10-----|
B||--13b15----13b15----13-13b15----13b15----13--|
G||---------------------------------------------|<-[Repeat a few times]
D||---------------------------------------------|
A||---------------------------------------------|
E||---------------------------------------------|

E||--8b10br8----------------------------------------------------|
B||----------11p8h11--------------------------------------------|
G||--------------------/7-10-7-9b10br9------9--7---7------------|
D||-------------------------------------10-------8---10-7-10-8--|
A||-------------------------------------------------------------|
E||-------------------------------------------------------------|

E||-------------8--------------------------------|
B||--------8h11---11p8---------------------------|
G||--/7-10-------------10p7----------------------|
D||-------------------------10p8-----------------|
A||------------------------------10p8------------|
E||-----------------------------------10p9p8-6\--|

Tapping frenzy
   T       T       T       T       T       T     T       T       T       T       T       T  
E||--20-6h-8-20-6h-8-20-6h-8-20-6h-8-20-6h-8-20-|--20-6h-8-20-6h-8-20-6h-8-20-6h-8-20-6h-8-20-|
B||---------------------------------------------|---------------------------------------------|
G||---------------------------------------------|---------------------------------------------|
D||---------------------------------------------|---------------------------------------------|
A||---------------------------------------------|---------------------------------------------|
E||---------------------------------------------|---------------------------------------------|

   T        T        T        T        T        T     T        T        T        T        T        T  
E||--22-8h-10-22-8h-10-22-8h-10-22-8h-10-22-8h-10-22-|--22-8h-10-22-8h-10-22-8h-10-22-8h-10-22-8h-10-22-|
B||--------------------------------------------------|--------------------------------------------------|
G||--------------------------------------------------|--------------------------------------------------|
D||--------------------------------------------------|--------------------------------------------------|
A||--------------------------------------------------|--------------------------------------------------|
E||--------------------------------------------------|--------------------------------------------------|

   T       T       T       T       T       T     T       T       T       T       T       T  
E||--20-6h-8-20-6h-8-20-6h-8-20-6h-8-20-6h-8-20-|--20-6h-8-20-6h-8-20-6h-8-20-6h-8-20-6h-8-20-|
B||---------------------------------------------|---------------------------------------------|
G||---------------------------------------------|---------------------------------------------|
D||---------------------------------------------|---------------------------------------------|
A||---------------------------------------------|---------------------------------------------|
E||---------------------------------------------|---------------------------------------------|

   T        T        T        T        T        T     T        T        T        T        T        T  
E||--22-8h-10-22-8h-10-22-8h-10-22-8h-10-22-8h-10-22-|--22-8h-10-22-8h-10-22-8h-10-22-8h-10-22-8h-10-22-|
B||--------------------------------------------------|--------------------------------------------------|
G||--------------------------------------------------|--------------------------------------------------|
D||--------------------------------------------------|--------------------------------------------------|
A||--------------------------------------------------|--------------------------------------------------|
E||--------------------------------------------------|--------------------------------------------------|

G arpeggio [Repeat about 15 times]
     PM PM PM   PM PM PM
E||----------------------|
B||----------8-----------|
G||-----7-------7-----7--|
D||--5-----5-------5-----|
A||----------------------|
E||----------------------|
Login or Register to remove this ad.