Ads

Main Menu (Dark Souls) Guitar Tab

Submitted: Aug 26, 2013 by OggirtMoonfrad

4.916665
Average: 4.9 (12 votes)
Download | Listen
Game: Dark Souls
Composer(s): Motoi Sakuraba
Style: Arrangement, Fingerstyle, Natural harmonics, Pinch harmonics

AutoScroll: Slow | Medium | Fast
Track 1 (Capo 2)
       Open D#7M9 Tuning                                                                           
       S                 S S S S S S S S S S S S S S S S S    S S S S S S S S S S S S S S S S S S  
F ||-----------------------------0-------2-----------------|------------0-------2-----------------|
A#||---------------------------0-------0---------0-2-----0-|----------0-------0---------0-2-----0-|
G ||*--0---------------------2-------2---------2-------2---|--0-----2-------2---------2-------2---|
D ||*----------------------3-------3---------3-------3-----|------3-------3---------3-------3-----|
A#||---------------------4-----------------4---------------|----4-----------------4---------------|
D#||-------------------------------------------------------|--------------------------------------|


  S S S S S S S S S S S S S S S S S S    S S S S S S S S S S S S S S S S S S  
------------0-------2-----------------|------------0-------2-----------------|
----------0-------0---------0-2-----0-|----------0-------0---------0-2-----0-|
--0-----2-------2---------2-------2---|--0-----2-------2---------2-------2---|
------3-------3---------3-------3-----|------3-------3---------3-------3-----|
----4-----------------4---------------|----4-----------------4---------------|
--------------------------------------|--------------------------------------|


                        NH                                          NH                 
  S S S S S S S S S     S  S S S S S S S S    S S S S S S S S  S    S S S S S S S S S  
------------0------------------------------|------------0-----------------------------|
----------0-------0------------0---4---0---|--------0-------0-------------0---4---0---|
--0-----2-------2---<>(12)-------5-------5-|--0-------5----------<>12-------5-------5-|
------3-------3--------------3-------3-----|------3-----------10--------3-------3-----|
----4----------------------5---------------|----5---------7-----------5---------------|
-------------------------------------------|----0-------------------------------------|


                        NH                                                        
  S S S S S S S S  S    S S S S S S S S S    S S S S S S S S S S S S S S S S S S  
------------0-----------------------------|------------0-------2-----------------|
--------0-------0-------------0---4---0---|----------0-------0---------0-2-----0-|
--0-------5----------<>12-------5-------5-|--0-----2-------2---------2-------2---|
------3-----------10--------3-------3-----|------3-------3---------3-------3-----|
----5---------7-----------5---------------|----4-----------------4---------------|
----0-------------------------------------|--------------------------------------|


  S S S S S S S S S S S S S S S S S S    S S S S S S S S S S S S S S S S S S  
------------0-------2-----------------|------------0-------2-----------------|
----------0-------0---------0-2-----0-|----------0-------0---------0-4-----0-|
--0-----2-------2---------2-------2---|--0-----2-------2---------2-------0---|
------3-------3---------3-------3-----|------3-------3---------3-------3-----|
----4-----------------4---------------|----4-----------------4---------------|
--------------------------------------|--------------------------------------|


  S S S S S S S S S S S S S S S S S S    S S S S S S S S S S S S S S S S S S  
------------0-------2-----------------|------------0-------2-----------------|
----------0-------0---------0-4-----0-|----------0-------0---------0-4-----0-|
--------0-------0---------0-------0---|--------0-------0---------0-------0---|
--1---1-------1---------1-------1-----|--1---1-------1---------1-------1-----|
----2-----------------2---------------|----2-----------------2---------------|
--------------------------------------|--------------------------------------|


                       NH                                                        
  S S S S S S S S S    S S S S S S S S S    S S S S S S S S S S S S S S S S S S  
------------0----------------------------|------------0-------2-----------------|
----------0-------0------------0-2-----0-|----------0-------0---------0-2-----0-|
--------0-------2---<>12-----2-------2---|--0-----2-------2---------2-------2---|
--1---1-------1------------3-------3-----|------3-------3---------3-------3-----|
----2--------------------4---------------|----4-----------------4---------------|
-----------------------------------------|--------------------------------------|


  S S S S S S S S S S S S S S S S S S    S S S S S S S S S S S S S S S S S S  
------------0-------2-----------------|------------0-------2-----------------|
----------0-------0---------0-2-----0-|----------0-------0---------0-4-----0-|
--0-----2-------2---------2-------2---|--------0-------0---------0-------0---|
------3-------3---------3-------3-----|--1---1-------1---------1-------1-----|
----4-----------------4---------------|----2-----------------2---------------|
--------------------------------------|--------------------------------------|


  S S S S S S S S S S S S S S S S S S    S S S S S S S S S S S S S S S S S S  
------------0-------2-----------------|------------0-------2-----------------|
----------0-------0---------0-4-----0-|----------0-------0---------0-2-----0-|
--------0-------0---------0-------0---|--------0-------0---------0-------2---|
--1---1-------1---------1-------1-----|--1---1-------1---------1-------3-----|
----2-----------------2---------------|----2-----------------2---------------|
--------------------------------------|--------------------------------------|


  S S S S S S S S S S S S S S S S S S    S S S S S S S S S S S S S S S S S S  
------------0-------2-----------------|------------0-------2-----------------|
----------0-------0---------0-2-----0-|----------0-------0---------0-2-----0-|
--0-----2-------2---------2-------2---|--0-----2-------2---------2-------2---|
------3-------3---------3-------3-----|------3-------3---------3-------3-----|
----4-----------------4---------------|----4-----------------4---------------|
--------------------------------------|--------------------------------------|


                       NH                                                        
  S S S S S S S S S    S S S S S S S S S    S S S S S S S S S S S S S S S S S S  
------------0----------------------------|------------0-------2-----------------|
----------0-------0------------0-4-----0-|----------0-------0---------0-4-----0-|
--0-----2-------2---<>12-----0-------0---|--------0-------0---------0-------0---|
------3-------3------------1-------1-----|--1---1-------1---------1-------1-----|
----4--------------------2---------------|----2-----------------2---------------|
-----------------------------------------|--------------------------------------|


  S S S S S S S S S S S S S S S S S S    S S S S S S S S S S S S S S S S S S  
------------0-------2-----------------|--------------------------------------|
----------0-------0---------0-4-----0-|----------2-5-------8-------2-------2-|
--------0-------0---------0-------2---|--0-----2---------5-------2---2---2---|
--1---1-------1---------1-------1-----|------4---------7-------4-------4-----|
----2-----------------2---------------|----5---------8-------5---------------|
--------------------------------------|--------------------------------------|


  S S S S S S S S S S S S S S S S S S    S S S S S S S S S S S S S    
--------------------------------------|-----------------------------||
----------2-5-------8-------2-------2-|----------2-5-------8--------||
--------2---------5-------2---2---2---|--------2---------5-------2-*||
--4---4---------7-------4-------4-----|--4---4---------7-------4---*||
----5---------8-------5---------------|----5---------8-------5------||
--------------------------------------|-----------------------------||




Duration Legend
---------------
W - whole
H - half
Q - quarter
E - 8th
S - 16th
T - 32nd
X - 64th
. - note dotted
|-n-|  - n-tuplets


Tablature Legend
----------------
L - tied note
x - dead note
g - grace note
(n) - ghost note
> - accentuded note
NH - natural harmonic
AH - artificial harmonic
TH - tapped harmonic
SH - semi harmonic
PH - pitch harmonic
h - hammer on
p - pull off
b - bend
br - bendRelease
pb - preBend
pbr - preBendRelease
brb - bendReleaseBend
\n/ - tremolo bar dip
\n - tremolo bar dive
-/n - tremolo bar Release up
/n\ - tremolo bar inverted dip
/n - tremolo bar return
-\n - tremolo bar Release down
S - shift slide
s - legato slide
/ -  slide into from below or out of upwards
\ -  slide into from above or out of downwards
~ - vibrato
W - wide vibrato
tr - trill
TP - tremolo picking
T - tapping
S - slap
P - pop
< - fade in
^ - brush up
v - brush down
Login or Register to remove this ad.

4 comments on Main Menu

I'm so glad to finally see a

5

I'm so glad to finally see a dark souls tab on here. Very nice.

Good tab, but kick-ass

4

Good tab, but kick-ass tuning.

Good luck getting it to

Good luck getting it to reverberate as nicely with a simpler tuning.

Seeing as the tab is 100% accurate note-wise, and playable as the video demonstrates, I implore you to reconsider your rating.

In any case, the tuning is only adjusting 4 strings by a semitone each, 'tis pretty easy. If you manage to find a way of playing this piece in a simpler tuning that maintains the open strings and harmonics as much, I'll happily concede.

Right in my heart

5

Awesome, dude. I waiting these tabs for long time, thank you.

But i have to change my tune into D without anything, it was such difficult, like a killing four-kings in first time. This song is perfect arrange with guitar. My butty was burned, but thank you.

Also, i'm here because Lobos :D