Ads

Great Grey Wolf Sif (arr. Isac Saleh) (Dark Souls) Guitar Tab

Submitted: Sep 13, 2020 by Lustful_Pig (Last updated: Sep 18, 2020)

5
Average: 5 (2 votes)
Download | Listen
Game: Dark Souls
Composer(s): Motoi Sakuraba
Style: Arrangement, Fingerstyle

Click here for a video example.

AutoScroll: Slow | Medium | Fast
 Great Grey Wolf Sif                               

Dark Souls
Composed by Motoi Sakuraba
Arranged by Isac Saleh
Standard tuning: EADGBE



     Q.     E  E  E     Q.     Q.        H        E  E     Q.     Q.      
E||------------------|----------------|-----------------|----------------|
B||--2------1--2--3--|--2-------------|--2--------------|----------------|
G||------------------|---------1------|-----------4--2--|--1-------------|
D||------------------|----------------|-----------------|--1-------------|
A||------------------|----------------|-----------------|----------------|
E||--2---------------|--1-------------|--0--------------|---------4------|


  E  E  E  E  E  E     E  E  E  E  E  E     Q.     Q.        Q.     E  E  E   
-----0--------------|-----0--------------|--3------0------|--1---------------|
--------3--1--0-----|--------3--1--0-----|--0-------------|---------------0--|
--2--------------2--|--1--------1--2--4--|--0-------------|---------1--2-----|
--------------------|--------------------|----------------|--0---------------|
--0-----------------|--2-----------------|----------------|------------------|
--------------------|--------------------|--3-------------|---------0--------|


  E  E  E  E  E  E     E  E  E  E  E  E     E  E  Q    E  E   
-----------5--------|--------------------|-------------------|
--------------------|--0--------1--------|--3----------------|
--2-----------------|--2-----------------|--2----------------|
--------------------|--------------------|-------------------|
--0--0--0-----0--0--|--L--0--0-----0--0--|-----0--0----0--0--|
--------------------|--------------------|-------------------|


  E  E  E  E  E  E     E  E  E  E  E  E     E  E  E  E  E  E   
--7--------4--------|--5--------L--------|--0-----------------|
-----5--6--5--3-----|--3--------5--------|--------0--1--0--1--|
-----------------5--|--------------------|-----------------2--|
--------------------|--------------------|--------------------|
--L--0--0-----0--0--|-----0--0-----0--0--|--L--0--0-----0--0--|
--------------------|--------------------|--------------------|


                                                       ^               
  E  E  E  E  E  E     E  E  E  E  E  E        E   E   E   E   E   E   
--------------0-----|--------------------||-------10--10--10----------|
--3--1--0--------3--|-----3--------------||-----------11------11------|
-----------2--------|--5-----4--5--4--5--||*----------12----------12--|
--------------------|--------------------||*------12------------------|
-----0--0-----0--0--|-----0--0-----0--0--||---10----------------------|
--------------------|--------------------||---------------------------|


          ^                                                     
  E   E   E   E   E   E       Q.     E  E  E     Q.     Q.      
-----10--10--10-----------||---------1--------|----------------|
---------10------10-------||---------1--------|--4------3------|
---------11----------11--*||------------------|--0------0------|
-----12------------------*||--3------3--------|--1------0------|
--9-----------------------||------------------|----------------|
--------------------------||--1------1--1--1--|----------------|


  Q.     E  E  E     Q.     Q.        E  E  E  Q.        Q.     Q.      
---------1--------|--3-------------|------------------|----------------|
---------1--------|---------3------|--4--3--1---------|----------------|
------------------|--0-------------|-----------0------|---------2------|
--3------3--------|---------0------|------------------|----------------|
------------------|----------------|--3--------2------|--1------0------|
--1------1--1--1--|--3------3------|------------------|----------------|


                                                          ^                 
  Q.     Q.        Q.     Q.        Q.     E  E  E        E  E  Q    E  E   
---------0------|---------1------|--0------0--------||----8----------------|
--0-------------|--3-------------|--0---------------||---10----------------|
----------------|----------------|------------------||*---9----------------|
----------------|----------------|---------2--------||*--------------------|
----------------|----------------|--2------2--------||----7--0--0----0--0--|
--4------3------|--2------1------|--0------0--0--0--||---------------------|


   ^                                                             
   E  E  Q    E  E       E  E  E  E  E  E     E  E  E  E  E  E   
--10-----------------||--0-----------1--0--|--1--------0--------|
--10-----------------||--1-----------------|--3-----------------|
---9----------------*||--2--------2--------|-----------1--------|
---7----------------*||--------------------|--------------------|
------0--0----0--0---||--0--0--0-----0-----|--0--0--0-----0--0--|
---------------------||--------------------|--------------------|


  E  E  E  E  E  E     E  E  E  E  E  E     S S S  S  S  S Q.      
--0-----------1--0--|-----------0--------|--8---------------------|
--1-----------------|--3--------3--------|----8-------------------|
--2-----------------|--4-----------------|------8-----------------|
-----------2--------|-----------0--------|--------10--------------|
--0--0--0-----0-----|--0--0--0-----0--0--|-----------10-----------|
--------------------|--------------------|--8-----------11-8------|


  S S S S E  E  E  E      S  S  S S S S Q.        E  E  E  E  E  E   
--7-------------------|--10--------------------|--------------------|
----8---0-------------|-----10-----------------|--------------------|
------7---0-----------|--------10-7------------|--------------------|
----------0-----0-----|---0---------7---0------|-----0--2--0--------|
-------------6--------|---------------8--------|--4-----------4--0--|
--7---8------7-----8--|------------------------|--------------------|


   S  S S S S  S  S   S S S S S     S S S S S S S S S S S S  
--12p-7-----------------------7-|--11-7-------------------7-|
--------8-------------------8---|-------7-4-----------4-7---|
----------9---------------9-----|-----------4-------4-------|
------------9-----------9-------|-------------4---4---------|
---7----------10p-7h-10---------|---6-----------6-----------|
--------------------------------|---------------------------|


   S  S S S S S  S  S S S S S    S S S S S S S S Q         Q    E  Q    E   
--10p-5---------------------5-|--9-5-------------0----||---5---------------|
--------6-----------------6---|------5----------------||-------------------|
----------7-------------7-----|--------6-2-------2----||*--2---------------|
------------7---------7-------|------------2---2------||*------------------|
---5----------8p-5h-8---------|--4-----------4--------||---0----0--0----0--|
------------------------------|-----------------------||-------------------|


                       ^                  ^                  ^                
  Q    E  Q    E       Q    E  Q    E     Q    E  Q    E     Q    E  Q    E   
-------------------||--0---------------|--1---------------|--0---------------|
-------------------||------------------|--0-------3-------|--1---------------|
------------------*||--2---------------|------------------|------------------|
------------------*||--2---------------|--3-------3-------|--2---------------|
--0----0--0----0---||--0----0--0----0--|--0----0--0----0--|--0----0--0----0--|
-------------------||------------------|------------------|------------------|


  ^                  ^                     ^                  
  Q    E  Q    E     E  E   E  E  E  E     E  E  E  E  E  E   
--5-------2-------|-----7---------------|--7--5--------------|
--4-------4-------|--------10--8--7-----|--------8--7--------|
------------------|--9---------------9--|--8-----------8-----|
--1-------4-------|--9------------------|--7--------------9--|
--0----0--0----0--|--7------------------|--6-----------------|
------------------|---------------------|--------------------|


  ^                             ^           ^                   ^               
  E  E  E  E  E  E     E  E  E  E  E  E     E  E  Q    E  E     Q.     Q.       
-----5--------------|--5--------7--------|-------------------|-----------------|
--------8--7--5-----|-----8--7--7-----0--|--5----------------|-----------------|
--7--------------7--|--5--------8--8-----|--4----------------|--2------4~------|
--7-----------------|--7--------9--------|--2-----2----4--5--|--4--------------|
--5-----------------|--6-----------------|-----2-------------|--2--------------|
--------------------|--------------------|--0----------------|-----------------|


                                                 ^               
  Q.     E  E  E     Q.     Q.           E   E   E   E   E   E   
------------------|----------------||-------10--10--10----------|
--0------1--0-----|---------0------||-----------11------11------|
--0------------2--|--0-------------||*----------12----------12--|
--0---------------|--1------4------||*------12------------------|
------------------|----------------||---10----------------------|
------------------|----------------||---------------------------|


          ^                                                     
  E   E   E   E   E   E       Q.     E  E  E     Q.     Q.      
-----10--10--10-----------||------------------|----------------|
---------10------10-------||--2------1--2--3--|--2-------------|
---------11----------11--*||------------------|---------1------|
-----12------------------*||------------------|----------------|
--9-----------------------||------------------|----------------|
--------------------------||--2---------------|--1-------------|


  H        E  E     Q.     Q.        E  E  E  E  E  E     E  E  E  E  E  E   
-----------------|----------------|-----0--------------|-----0--------------|
--2--------------|----------------|--------3--1--0-----|--------3--1--0-----|
-----------4--2--|--1-------------|--2--------------2--|--1--------1--2--4--|
-----------------|--1-------------|--------------------|--------------------|
-----------------|----------------|--0-----------------|--2-----------------|
--0--------------|---------4------|--------------------|--------------------|


  Q.     Q.        Q.     E  E  E     H.             
--3------0------|--1---------------|---------------||
--0-------------|------------------|---------------||
--0-------------|---------1--2--4--|--2------------||
----------------|--0---------------|---------------||
----------------|------------------|--0------------||
--3-------------|---------0--------|---------------||




Duration Legend
---------------
W - whole
H - half
Q - quarter
E - 8th
S - 16th
T - 32nd
X - 64th
. - note dotted
|-n-|  - n-tuplets


Tablature Legend
----------------
L - tied note
x - dead note
g - grace note
(n) - ghost note
> - accentuded note
NH - natural harmonic
AH - artificial harmonic
TH - tapped harmonic
SH - semi harmonic
PH - pitch harmonic
h - hammer on
p - pull off
b - bend
br - bendRelease
pb - preBend
pbr - preBendRelease
brb - bendReleaseBend
\n/ - tremolo bar dip
\n - tremolo bar dive
-/n - tremolo bar Release up
/n\ - tremolo bar inverted dip
/n - tremolo bar return
-\n - tremolo bar Release down
S - shift slide
s - legato slide
/ -  slide into from below or out of upwards
\ -  slide into from above or out of downwards
~ - vibrato
W - wide vibrato
tr - trill
TP - tremolo picking
T - tapping
S - slap
P - pop
< - fade in
^ - brush up
v - brush down
Login or Register to remove this ad.