Ads

Underground Water Channel (Dark Cloud 2) Guitar Tab

Submitted: Jan 14, 2012 by Turatu

0
Download | Listen
Game: Dark Cloud 2
Composer(s): Tomohito Nishiura
Style: Transcription

AutoScroll: Slow | Medium | Fast
Dark Cloud 2
Underground Water Channel
Tomohito Nishiura

Tuning: Standard

I don't know how to use a metronome or count
properly so if the note lengths dont seem
right, I'm Sorry. Just go by the music if it
isn't right. But it should help a bit. Haha.

4/4

                                                __3__
   E E Q.  E Q     E Q.  E E E E   E E. E. Q    E E E 
e|-----------1~--|-2-------------|---1----------------|
B|---1-2---------|---4---1-4-2-1-|-2------------1-2-1-|
G|-3-------3-----|---------------|------2--3----------|
D|---------------|---------------|--------------------|
A|---------------|---------------|--------------------|
E|---------------|---------------|--------------------|


   E E Q.  E Q     E Q.  E E E E   E E. E. H 
e|-----------1~--|-2-------------|--------------|
B|---1-2---------|---4---1-4-2-1-|-2-1----------|
G|-3-------3-----|---------------|------2--3----|
D|---------------|---------------|--------------|
A|---------------|---------------|--------------|
E|---------------|---------------|--------------|

                                                  __3__
   Q.  E E Q.    E. E E E. S   S S S S Q   Q   E S S S
e|---------4~--|-6--4-2-1--1-|-4-2-1-2-9---8---6-1---1-|
B|-----1-2-----|-------------|---------------------4---|
G|-3-----------|-------------|-------------------------|
D|-------------|-------------|-------------------------|
A|-------------|-------------|-------------------------|
E|-------------|-------------|-------------------------|


   Q.  E E Q.    E. E E E. S   S S S S E E Q  
e|---------4~--|-6--4-2-1--1-|-4-2-1-2-1------|
B|-----1-2-----|-------------|-----------1----|
G|-3-----------|-------------|-------------3--|
D|-------------|-------------|----------------|
A|-------------|-------------|----------------|
E|-------------|-------------|----------------|


note lengths:

W= whole
H= half
Q= quarter
E= eighth
S= sixteenth
_________________________

L= tied note
.= dotted note
~= vibrato

__3__= triplets



Login or Register to remove this ad.

1 comment on Underground Water Channel

Thanks for the tab!

Thanks for the tab! I really like it!