Garden of Memories (Dark Cloud 2) Guitar Tab

Submitted: Feb 22, 2013 by Guitardora

5
Average: 5 (5 votes)
Download | Listen
Game: Dark Cloud 2
Composer(s): Tomohito Nishiura
Style: Arrangement, Artificial harmonics, Fingerstyle

AutoScroll: Slow | Medium | Fast
  Garden of Memories

Music by Tomohito Nishiura
Arranged by Guitardora

Standard Tuning
Tempo = 85
Recommend: Let ring throughout, feel the flow of memories ^^!


     Q  Q  Q       Q  Q  Q       Q     Q     E  E       E  E  E  E  E  E                                                                       
E |--------5----|--------5----|--------5-----5--0----|--0--------1--0-------|
B |--------3----|-------------|--3-----------3-------|-----------------1----|
G |-----2-------|-----2--2----|--2-----2-------------|--------0-------------|
D |--0----------|--0-----0----|--0-------------------|-----2----------------|
A |-------------|-------------|----------------------|--3-----------3-------|
E |-------------|-------------|----------------------|----------------------|
  
  Q     E  E  E  E       Q     Q     E  E       Q  Q  Q                                                            
-----------0----------|----------------------|--1-----1----|
--3-----------3--1----|--------------1--1----|-------------|
--------2-------------|--2--------------2----|--------3----|
--0-------------------|--------2-------------|-----3-------|
--------------3-------|--0-----------0-------|--1----------|
----------------------|----------------------|-------------|

  Q     Q     E  E       Q  Q  Q       Q  Q  Q       Q     Q     E  E                  
--0-------------------|-----5--3----|--2----------|--------5-----5--0----|
--------------3--1----|--3-----3----|-----3-------|--3-----------3-------|
--------0-------------|-----2-------|--------2----|--------2-------------|
--------2-------------|--0----------|--0----------|--0-------------------|
--3-------------------|-------------|-------------|--------------0-------|
----------------------|-------------|-------------|----------------------|

  E  E  E  E  E  E       Q     E  E  E  E       Q     Q     E  E                    
--0--------1--0-------|-----------0----------|----------------------|
-----------------1----|--3-----------3--1----|--------------1--1----|
--------0-------------|--------2-------------|--2--------------2----|
-----2----------------|--0-------------------|--------2-------------|
--3-----------3-------|--------3-----3-------|--0-----------0-------|
----------------------|----------------------|----------------------|

  Q  Q  Q       Q     Q     E  E       Q  Q  Q       Q  Q  Q                  
--1-----1----|--0-------------------|-----5--3----|--2--3--5L---|
-------------|--------------3--1----|--3-----3----|--------3L---|
--------3----|--------0-------------|-----2-------|-----2-------|
-----3-------|--------2-------------|--0----------|--0----------|
--1----------|--3-------------------|-------------|-------------|
-------------|----------------------|-------------|-------------|

        E  E  E  E       E  E  E  E  E  E       E  E  E  E  E  E                    
----------------------|----------------------|----------------------|
----------------------|-----3--3-------------|--1-----1--------1----|
--------2--------0----|--2--------------2----|-----2----------------|
-----------0--3-------|-----------0--3-------|-----------0--2-------|
--------1-------------|--------1-------------|--------0-------------|
----------------------|----------------------|----------------------|

  E  E  E  E  E  E       E  E  E  E  E  E       E  E  E  E  E  E                       
----------------------|----------------------|--0--1--1-------------|
----------------------|-----1--3--------3----|--------------3-------|
--2--0--2-------------|--0-----------2-------|--------------2-------|
--------------2s-3----|-----------3----------|-----------3----------|
--------0--3----------|--------1-------------|--------1--------1----|
----------------------|----------------------|----------------------|

  ^
  Q     E  E  E  E       E  E  E  E  E  E       E  E  E  E  E  E                   
--1-----0-------------|----------------------|----------------------|
--3--------------1----|--3--1--1-------------|----------------------|
--2-----------0-------|--0--------------0----|--2-----2--------0----|
-----------2-----2----|-----------2s-3-------|-----------0--3-------|
--------0-------------|--------0-------------|--------1-------------|
----------------------|----------------------|-----0----------------|

  E  E  E  E  E  E       E     E  E  E  E  E    E  E  E  E  E  E
----------------------|--0--0s-1-------------|--0h-1--3-----0-------|
-----3--3--------3----|-----------1--------1-|--------------1-------|
--2-----------2-------|-----------------0----|-----------0-----0----|
-----------3----------|--------------2-------|----------------------|
--------1-------------|-----------0----------|--------3-------------|
----------------------|----------------------|----------------------|

                                                                                
   E  E  E  E  E  E       E    E  E  E  E  E                                           
|----------------------|--5--0h1--0----------|
|--1-----3-------------|----------------1----|
|-----0--------3-------|----------------0----|
|-----------3-----3----|-------------2-----2-|
|--3-----1-----1-------|----------3----------|
|----------------------|---------------------|


                ^             ^                              AH   AH
  Q  Q  Q       Q  Q  Q       Q  Q  Q       Q  Q  Q       Q   Q   Q
--0----------|-----0-------|--0----------|-------------|---------------|
-----3-------|--3----------|--5--1-------|--1----------|------3--------|
--------2----|--3-----3----|--4-----2----|-----2-------|--2-------3----|
-----0-------|--2--0-------|-----0-------|--------2----|------3--------|
-------------|-------------|-------------|-----0-------|---------------|
-------------|-------------|-------------|-------------|---------------|

  AH  AH  AH      AH  AH  AH      AH  AH          
  Q   Q   Q       Q   Q   Q       Q   H
------0--------|--0------------|--0---2L------|--2----------|-------------||
--3------------|------1--------|--------------|-------------|-------------||
----------3----|----------2----|--------------|-------------|-------------||
------0--------|------0--------|------0L------|--0----------|-------------||
---------------|---------------|--------------|-------------|-------------||
---------------|---------------|--------------|-------------|-------------||

_______________
Duration Legend
_______________

H - half
Q - quarter
E - 8th

_______________
Legend
_______________

L - tied note
h - hammer on/pull off
s - slide
~ - vibrato
^ - brush down
AH - artificial harmonic
Login or Register to remove this ad.

2 comments on Garden of Memories

Beautiful

5

It's nice and relaxing to play as well. Great arrangement.

Thanks for your comment ^^!

5

Thanks for your comment ^^!