Ads

Lonely (Cry of Fear) Guitar Tab

Submitted: Apr 29, 2014 by impbizkit

5
Average: 5 (2 votes)
Download | Listen
Game: Cry of Fear
Composer(s): Andreas Rönnberg, Bxmmusic, Muddasheep
Style: 2 or more instruments, Arrangement, Fingerstyle, Transcription

AutoScroll: Slow | Medium | Fast
Guitar 1 (rhythm)

e|-----------------------------------------------------|
B|-----------------------------------------------------|
G|------2-------2-------2-------2----------------------| (4 times then melody start)
D|----2---2---2---2---3---3---3---3--------------------|
A|--0-------0-------0-------0--------------------------|
E|-----------------------------------------------------|

just play like this until end

-------------------------------------------------------------------------------------------

Guitar 2 (melody)

e|-----------------------------------------------------|
B|-----------------------------------------------------|
G|--9-----7-----5-----4-----2--------------------------| (2 times)
D|-----------------------------------------------------|
A|-----------------------------------------------------|
E|-----------------------------------------------------|

e|-----------------------------------------------------|
B|-----------------------------------------------------|
G|--9-----7-----9-----5-----4-----2-----0--------------|
D|-----------------------------------------------------|
A|-----------------------------------------------------|
E|-----------------------------------------------------|

e|-----------------------------------------------------|
B|-----------------------------------------------------|
G|--9-----7-----9-----5-----4-----2--------------------|
D|-----------------------------------------------------|
A|-----------------------------------------------------|
E|-----------------------------------------------------|

-------------------------------------------------------------------------------------------

solo

e|-----------------------------------------------------|
B|-----------------------------------------------------|
G|------2-------2-------2-------2----------------------| (4 times)
D|----2---2---2---2---3---3---3---3--------------------|
A|--0-------0-------0-------0--------------------------|
E|-----------------------------------------------------|

e|--0--------------------------------------------------|
B|--------3---------1-----0----------------------------|
G|------2-------2-------2-------2---2------------------|
D|----2---2---2---2---3---3---3---3--------------------|
A|--0-------0-------0-------0-------0------------------|
E|-----------------------------------------------------|
Login or Register to remove this ad.

2 comments on Lonely

This is great !

This is great !

That's good but there are some parts missing in solo

Lets make it clear
5.jpg