Ads

Miwataseba (Croisée in a Foreign Labyrinth) Guitar Tab

Submitted: Jan 29, 2014 by tomorning

5
Average: 5 (3 votes)
Download | Listen
Game: Croisée in a Foreign Labyrinth
Style: Fingerstyle, Transcription

AutoScroll: Slow | Medium | Fast
                               Miwataseba / 見渡せば
                 ~ anime "Croisee in a Foreign Labyrinth / 異国迷路のクロワーゼ " ~


Words: Kiyoteru Shibata(柴田清照) /Chikai Inagaki(稲垣千頴)
Music: Jean-Jacques Rousseau
tabber by to*morning

 4/4

|-3---3-1--------|--------3-1----|-6---6-4-3---3---|-1---1-3---------|
|-4-------4---4--|-6---6----1-4--|-------3-4-------|-1-4-3---4---4---|
|-3-3------------|-5------3-1-3--|---3-------3---3-|-1---3-----3-----|
|-1-------5-5----|------------1--|-5-----3-1-------|---------1-------|
|---------3------|---6-----------|-----------------|-----------------|
|----------------|-4-------------|-----------------|-----------------|


|-3---3-4-6---6--|-8---8---6-4-3---|-3---3-4-6---6---|-8--8--6------|
|-------3-4------|-----------------|-4---4-3-4-------|-8--8--6------|
|---3-------3----|---8-----3-3-3-3-|-3-3-----0-3---3-|-8--8--8---7--|
|-1-----3-5------|-6-----8-5-3-1---|-1---------------|-6--7------6--|
|----------------|-----------------|-----------------|---------8----|
|----------------|-----------------|-----------------|-------6------|


|-3---3-1---------|--------3-1---|-6---6-4-3---3---|-1---1-3---------||
|-4-------4---4-3-|-6---6--3-1-4-|-------3-4-------|-1-4-3---4-------||
|-3-3---3-------3-|-5------3-1-3-|---3-------3---3-|-1---3-------3---||
|-1-------5-5---3-|------------1-|-5-----3-1-------|-----------5-----||
|---------3-------|---6----------|-----------------|---------6-------||
|-----------------|-4------------|-----------------|-----------------||


|-3---3-1---------|--------3-1----|-6---6-4-3---3---|-1---1-3--------|
|-4-------4---4-3-|-6---6--3-1-4--|-------3-4-------|-1-4-3---4---4--|
|-3-3---3-------3-|-5------3-1-3--|---3-------3---3-|-1---3-----3----|
|-1-------5-5---3-|------------1--|-5-----3-1-------|---------1------|
|---------3-------|---6-----------|-----------------|----------------|
|-----------------|-4-------------|-----------------|----------------|


|-3---3-4-6---6--|-8---8---6-4-3---|-3---3-4-6---6---|-8--8--6------|
|-------3-4------|-----------------|-4---4-3-4-------|-8--8--6------|
|---3-------3----|---8-----3-3-3-3-|-3-3-----0-3---3-|-8--8--8---7--|
|-1-----3-5------|-6-----8-5-3-1---|-1---------------|-6--7------6--|
|----------------|-----------------|-----------------|---------8----|
|----------------|-----------------|-----------------|-------6------|


|-3---3-1---------|--------3-1----|-6---6-4-3---3---|-1---1-3--------|
|-4-------4---4-3-|-6---6--3-1-4--|-------3-4-------|-1-4-3---4------|
|-3-3---3-------3-|-5------3-1-3--|---3-------3---3-|-1---3-----3-3--|
|-1-------5-5---3-|------------1--|-5-----3-1-------|-----------6-5--|
|---------3-------|---6-----------|-----------------|---------6------|
|-----------------|-4-------------|-----------------|-------------6--|
Login or Register to remove this ad.

1 comment on Miwataseba

easy way (but, Shigeharu

easy way (but, Shigeharu Sasago not using capo at kokoya stage)

Capo 1

|-2---2-0--------|-0---0--2-0----|-5---5-3-2---2---|-0---0-2---------|
|-3-------3---3--|----------0-3--|-------2-3-------|-0-3-2---3---3---|
|-2-2------------|-4------2-0-2--|---2-------2---2-|-0---2-----2-----|
|-0-------4-4----|---0--------0--|-4-----2-0-------|---------0-------|
|---------2------|---------------|-----------------|-----------------|
|----------------|-3-------------|-----------------|-----------------|


|-2---2-3-5---5--|-7---7---5-3-2---|-2---2-3-5---5---|-7--7--5------|
|-------2-3------|-----------------|-3---3-2-3-------|-7--7--5------|
|---2-------2----|---7-----2-2-2-2-|-2-2-------2---2-|-7--7--7---6--|
|-0-----2-4------|-5-----7-4-2-0---|-0-------4-------|-5--6------5--|
|----------------|-----------------|-----------------|---------7----|
|----------------|-----------------|-----------------|-------5------|


|-2---2-0---------|-0---0--2-0---|-5---5-3-2---2---|-0---0-2---------||
|-3-------3---3-2-|--------2-0-3-|-------2-3-------|-0-3-2---3-------||
|-2-2---2-------2-|-4------2-0-2-|---2-------2---2-|-0---2-------2---||
|-0-------4-4---2-|---0--------0-|-4-----2-0-------|-----------4-----||
|---------2-------|--------------|-----------------|---------5-------||
|-----------------|-3------------|-----------------|-----------------||


|-2---2-0---------|-0---0--2-0----|-5---5-3-2---2---|-0---0-2--------|
|-3-------3---3-2-|--------2-0-3--|-------2-3-------|-0-3-2---3---3--|
|-2-2---3-------2-|-4------2-0-2--|---2-------2---2-|-0---2-----2----|
|-0-------4-4---2-|---0--------0--|-4-----2-0-------|---------0------|
|---------2-------|---------------|-----------------|----------------|
|-----------------|-3-------------|-----------------|----------------|


|-2---2-3-5---5--|-7---7---5-3-2---|-2---2-3-5---5---|-7--7--5------|
|-------2-3------|-----------------|-3---3-2-3-------|-7--7--5------|
|---2-------2----|---7-----2-2-2-2-|-2-2-------2---2-|-7--7--7---6--|
|-0-----2-4------|-5-----7-4-2-0---|-0-------4-------|-5--6------5--|
|----------------|-----------------|-----------------|---------7----|
|----------------|-----------------|-----------------|-------5------|


|-2---2-0---------|-0---0--2-0----|-5---5-3-2---2---|-0---0-2--------|
|-3-------3---3-2-|--------2-0-3--|-------2-3-------|-0-3-2---3------|
|-2-2---2-------2-|-4------2-0-2--|---2-------2---2-|-0---2-----2-2--|
|-0-------4-4---2-|---0--------0--|-4-----2-0-------|---------0-5-4--|
|---------2-------|---------------|-----------------|-------------0--|
|-----------------|-3-------------|-----------------|----------------|

Tab file