Ads

Hana Saku Machi no Waltz (Croisée in a Foreign Labyrinth) Guitar Tab

Submitted: Oct 25, 2015 by tomorning

5
Average: 5 (6 votes)
Download | Listen
Game: Croisée in a Foreign Labyrinth
Style: Arrangement, Fingerstyle, Trill

AutoScroll: Slow | Medium | Fast
                                Hana Saku Machi no Waltz
                                  (花咲く街のワルツ)
             ~ from anime "Croisee in a Foreign Labyrinth (異国迷路のクロワーゼ)" ~

Music by Yuki Etou (江藤有希) / ko-ko-ya (コーコーヤ)
arranged by to*morning

normal tuning

Allegro Moderato

        >        >           >        >           >        >           >     >  >      
     E  E  E  E  E  E     E  E  E  E  E  E     E  E  E  E  E  E     E  E  E  E  E  E   
E||--------------------|--------------------|--------------------|--------------------|
B||-----0--0-----------|--------------0--0--|-----0--0-----------|-----------0--0-----|
G||-----0--0-----2--2--|-----5--5-----0--0--|-----0--0-----2--2--|-----5--5--0--0-----|
D||-----2--2-----2--2--|-----3--3-----3--3--|-----2--2-----2--2--|-----3--3--3--3-----|
A||--3-----------------|--5-----------------|--3-----------------|--5-----------------|
E||-----------3--------|-----------3--------|-----------3--------|-----------3--3-----|


                      >                         >        >          >  >        >        >      
    S  S  S S S  S E  E  E     S S  S S S  S E  E  E     Q    E  E  E  E     E  E  E  E  E  E   
|-----------0---------------|---------0---------------|-------------0--0--|--------------------|
|---0h-1h-3---3p-1-0--L-----|----1h-3---3p-1-0-----0--|--1----------1--1--|-----5--5-----5--5--|
|*--0-----------------2--2--|--0----------------2--2--|-------------------|-----5--5-----5--5--|
|*--------------------2--2--|-------------------2--2--|-------3--L--------|--------------------|
|---3-----------------------|--3----------------------|--5-------0--------|--5--------0--------|
|------------------3--------|----------------3--------|-------------------|--------------------|


                    >                                  >           >           >                
  S  S  S S S  S E  E  E     S S  S S S  S E  E  E     E  E  E  E  E  E     E  E  E  E   E  E   
----------0---------------|---------0------------0--|-----------7--------|--L------------------|
--0h-1h-3---3p-1-0--L-----|----1h-3---3p-1-0--1-----|--8-----------5--5--|-----5--5------------|
--0-----------------2--2--|--0----------------2-----|--------5-----5--5--|-----5--5------------|
--------------------2--2--|-------------------------|-----7--------------|-----------7---------|
--3-----------------------|--3----------------------|--5--------0--------|--5-----------10--9--|
-----------------3--------|----------------3--------|--------------------|---------------------|


  >                                           >                                      
  E  E  E  E  E  E     E   E   E  E  E  E     E  Q    E  E  E     E  E  E  E  E  E   
--8--------1--------|--L---3---5--7--5-----|--7-------0--------|--L--1--3--5--3--0--|
-----5--------1-----|------0------6-----8--|-------------3-----|-----1-----2--------|
-----5--------2-----|-----(0)-----0--------|-----7-------0-----|-----------0--------|
--------7-----------|----------------------|-----5----------0--|--------------------|
--8-----------------|----------------------|----------2--------|--0-----------------|
-----------1-----2--|--3-------------------|--0----------------|--------------------|


     >        >  >                                                                  
  E  E  E  E  E  E     E  E  E  E  E  E     E  E  E  E  E  E     E  E  E  E  E  E   
--5-----------------|--------0-----------|--------0-----------|-----------------0--|
-----------3--------|--L--3-----0--0-----|--0-----------------|--1-----0--3--------|
-----5--5-----5--5--|--------0--0-----3--|-----0-----2-----0--|-----2--0-----2-----|
-----3--3-----3--3--|-----3--------------|-----2--------2-----|--0-----------3-----|
--5--------0--------|--------------------|--3-----------------|--------------------|
--------------------|--3--------3--------|-----------3--------|-----------3--------|


                                            >   >         >                           
  E  E  E  Q    E     E  E  E  E  Q         E   E   E  E  E  E     E  E  E  E  E  E   
--------0----------|-----------0--------||--8-------------------|-----------6--4--3--|
--0----------------|-----------5--------||------9---9--6--------|-----8--9--6--------|
-----0-----2----0--|--5-----5----------*||------8---8-----8--8--|--------7-----------|
-----2-----2-------|-----3-------------*||-----10--10-----6--6--|-----6--------------|
--3----------------|--5-----------------||--8----------8--------|--------------------|
-----------3-------|--------------------||----------------------|--6-----------------|


  >  >        >           >  >                     >  >        >                           
                                  |--3--|                                                  
  E  E  E  E  E  E     E  E  E  S T  T  T E  E     E  E  E  E  E  E     E  E  E  E  E  E   
--6-----------------|-----------3-Lh-4p-3-------|--4-----------------|--------------3--4--|
-----------3--------|--L--4--6--4---------6--4--|-----------1--------|--L--3--4--6--3-----|
-----3--3-----3--3--|--------3---------------3--|-----1--1-----1--1--|-----1--------3-----|
-----3--3-----3--3--|-----5---------------5-----|-----3--3-----1--1--|--------------------|
--------------------|--3--------3---------------|-----------3--------|--1-----------------|
--3--------3--------|---------------------------|--1-----------------|-----------4--------|


                                             >   >         >                           
  E  S S E  E  E   E     E  E  E  Q    E     E   E   E  E  E  E     E  E  E  E  E  E   
--6---------L--6s--8--|--9--------8-------|--8-------------------|-----------6--4--3--|
---------3-----3------|-----------8-------|------9---9--6--------|-----8--9--6--------|
-------3-------3------|--------9----------|------8---8-----8--8--|--------7-----------|
-----3---------3------|-----8-------------|-----10--10-----6--6--|-----6--------------|
----------------------|-------------------|--8----------8--------|--------------------|
--3---------3---------|--8-------------8--|----------------------|--6-----------------|


  >  >        >           >  >              >  >        >                           
  E  E  E  E  E  E     E  E  E  E  E  E     E  E  E  E  E  E     E  E  E  E  E  E   
--6-----------------|-----------3--------|--4-----------------|--------------3--1--|
-----------3--------|--L--4--6-----6--4--|-----------1--------|--------1--3--------|
-----3--3-----3--3--|--------3--------3--|-----1--1-----1--1--|-----3-----1--------|
-----3--3-----3--3--|-----5--------5-----|-----3--3-----1--1--|--------------------|
--------------------|--3--------3--------|-----------3--------|--1--------1--------|
--3--------3--------|--------------------|--1-----------------|--------------------|


                   >    >   >         >                             >  >        >      
  E  E.  S  E  E.  S    E   E   E  E  E  E     E  E  E  E  E  E     E  E  E  E  E  E   
---------------0-----|--8-------------------|-----------6--4--3--|--6-----------------|
--4------------------|------9---9--6--------|-----8--9--6--------|-----------3--------|
-----3---------3---0-|------8---8-----8--8--|--------7-----------|-----3--3-----3--3--|
--1------------------|-----10--10-----6--6--|-----6--------------|-----3--3-----3--3--|
---------2s-3--------|--8----------8--------|--------------------|--------------------|
---------------------|----------------------|--6-----------------|--3--------3--------|


     >  >                     >  >        >                                                 
             |--3--|                                                                        
  E  E  E  S T  T  T E  E     E  E  E  E  E  E     E  E  E  E  E  E     E  E  E  E  E   E   
-----------3-Lh-4p-3-------|--4-----------------|--------------3--4--|--6--------L--6s--8--|
--L--4--6--4---------6--4--|-----------1--------|--L--3--4--6--3-----|-----------3---------|
--------3---------------3--|-----1--1-----1--1--|-----1--------3-----|--------3------------|
-----5---------------5-----|-----3--3-----1--1--|--------------------|-----3---------------|
--3--------3---------------|-----------3--------|--1-----------------|---------------------|
---------------------------|--1-----------------|-----------4--------|--3------------------|


     >                >   >         >                             >  >        >      
  E  E  E  Q    E     E   E   E  E  E  E     E  E  E  E  E  E     E  E  E  E  E  E   
--9--------8-------|--8-------------------|-----------6--4--3--|--6-----------------|
-----------8-------|------9---9--6--------|-----8--9--6--------|-----------3--------|
-----9--9--9-------|------8---8-----8--8--|--------7-----------|-----3--3-----3--3--|
-----8--8----------|-----10--10-----6--6--|-----6--------------|-----3--3-----3--3--|
-------------------|--8----------8--------|--------------------|--------------------|
--8--------8----8--|----------------------|--6-----------------|--3--------3--------|


     >  >              >  >        >                                                
  E  E  E  E  E  E     E  E  E  E  E  E     E  E  E  E  E  E     E  E  E  E  E  E   
-----------3--------|--4-----------------|--------------3--1--|-----------0--------|
--L--4--6-----6--4--|-----------1--------|--------1--3--------|--4--------------0--|
--------3--------3--|-----1--1-----1--1--|-----3-----1--------|--------0-----1-----|
-----5--------5-----|-----3--3-----1--1--|--------------------|--1-----------------|
--3--------3--------|-----------3--------|--1--------1--------|-----1--------------|
--------------------|--1-----------------|--------------------|-----------0--------|


                       (if u can . Top note trill)                                           
                                                                                      >      
  E  E  E  E  E  E     E                           S S E  Q.        S  S  S S S  S E  E  E   
--1--------2--------|--3----------------------------------3------|----------0---------------|
--------1--------2--|----------------------------------0---------|--0h-1h-3---3p-1-0--L-----|
-----2--------3-----|--------------------------------0-----------|--0-----------------2--2--|
--------------------|------------------------------0-------------|--------------------2--2--|
--------------------|--------------------------------------------|--3-----------------------|
--1--------2--------|--3-----------------------------------------|-----------------3--------|


                   >        >          >  >        >        >                          >      
  S S  S S S  S E  E  E     Q    E  E  E  E     E  E  E  E  E  E     S  S  S S S  S E  E  E   
---------0---------------|-------------0--0--|--------------------|----------0---------------|
----1h-3---3p-1-0-----0--|--1----------1--1--|-----5--5-----5--5--|--0h-1h-3---3p-1-0--L-----|
--0----------------2--2--|-------------------|-----5--5-----5--5--|--0-----------------2--2--|
-------------------2--2--|-------3--L--------|--------------------|--------------------2--2--|
--3----------------------|--5-------0--------|--5--------0--------|--3-----------------------|
----------------3--------|-------------------|--------------------|-----------------3--------|


                            >           >           >                  >                  
  S S  S S S  S E  E  E     E  E  E  E  E  E     E  E  E  E   E  E     E  E  E  E  E  E   
---------0------------0--|-----------7--------|--L------------------|--8--------1--------|
----1h-3---3p-1-0--1-----|--8-----------5--5--|-----5--5------------|-----5--------1-----|
--0----------------2-----|--------5-----5--5--|-----5--5------------|-----5--------2-----|
-------------------------|-----7--------------|-----------7---------|--------7-----------|
--3----------------------|--5--------0--------|--5-----------10--9--|--8-----------------|
----------------3--------|--------------------|---------------------|-----------1-----2--|


                         >                                           >        >  >   
  E   E   E  E  E  E     E  Q    E  E  E     E  E  E  E  E  E     E  E  E  E  E  E   
--L---3---5--7--5-----|--7-------0--------|--L--1--3--5--3--0--|--5-----------------|
------0------6-----8--|-------------3-----|-----1-----2--------|-----------3--------|
-----(0)-----0--------|-----7-------0-----|-----------0--------|-----5--5-----5--5--|
----------------------|-----5----------0--|--------------------|-----3--3-----3--3--|
----------------------|----------2--------|--0-----------------|--5--------0--------|
--3-------------------|--0----------------|--------------------|--------------------|


  E  E  E  Q    E     E  E  E  E  E  E     E  E  E  E  E  E     E  E  E  E  E  E   
--------0----------|--------0-----------|-----------------0--|--------0-----------|
--L--3-----0-------|--0-----------------|--1-----0--3--------|--0-----------------|
--------0--0----3--|-----0-----2-----0--|-----2--0-----2-----|-----0-----2-----0--|
-----3-------------|-----2--------2-----|--0-----------0-----|-----2--------2-----|
-------------------|--3-----------------|--------------------|--3-----------------|
--3--------3-------|-----------3--------|-----------3--------|-----------3--------|


  E  E  E  E  E  E     E  E  E  E  E  E     E  E  E  E  E  E     E  E  E  E  E  E   
-----------------0--|--------0-----------|-----------------0--|--------------------|
--1-----0--3--------|--0-----------------|--1-----0--3--------|--0-----------------|
-----2--0-----2-----|-----0-----2-----0--|-----2--0-----2-----|--------0--------2--|
--0-----------3-----|-----2--------2-----|--0-----------0-----|-----2--------2-----|
--------------------|--3-----------------|--------------------|--3-----------------|
-----------3--------|-----------3--------|-----------3--------|-----------3--------|


           <        
  E  E  E  Q.       
-----------0------||
-----------5------||
--------5---------||
-----3------------||
--5---------------||
------------------|| fine.

Login or Register to remove this ad.