Ads

Under the Apple Tree (Crisis Core: Final Fantasy VII) Guitar Tab

Submitted: Jan 03, 2021 by ajarthur (Last updated: Apr 05, 2021)

4.5
Average: 4.5 (2 votes)
Download | Listen
Game: Crisis Core: Final Fantasy VII
Composer(s): Takeharu Ishimoto
Style: Fingerstyle
Series: Final Fantasy

AutoScroll: Slow | Medium | Fast
Crisis Core theme - "Under the apple tree"	ajarthur from Victor Medeiros Coelho's

1st Part:				*Continue similar strumming*
    Em      ->  	    G   ->          §  Em     Em      ->    G   ->     Em
    E E Q    Q.    E Q.     E E E Q   *
e|-----------------------------------|-----|-----------------------------------||
B|-----------------------------------|-----|-------------------------------3---||
G|------0----0-----0-0------0-0-0-0--|(0)--|------0---------0----------0---0--*||
D|--0h2-2----2-----2-0------0-0-0-2--|(2)--|--0h2-2---------0----------2---2--*||
A|--0h2-2----2-----2-2------2-2-2-2--|-----|--2---2---------2----------2---2---||
E|------0----0-----0-3------3-3-3-0--|-----|------0---------3----------0---0---||

2nd part:			     C			          G
   CII A&D, mute G		   (x2)           Q.               H     H  (x3)
e|------------0-------------------||----------------------------------------||
B|-3s5--5--3----------------------||-0---1---1---1----1---3---1---0---------||
G|-X-------0----------2--4s5--4--*||-0---0---0---0----0---0---0---0-----0--*||
D|-2-------0----------2----------*||-2---2---2---2----2---2---2---0-----0--*||
A|-2-------2----------2-----------||-3---3---3---3----3---3---3---2-----2---||
E|-0-------3----------0-----------||------------------------------3-----3---||
   C			       D
               Q.               H     H  D.C.
e|------------------------------0---------||
B|-0---1---1---1----1---3---1---3-----3---||
G|-0---0---0---0----0---0---0---2-----2--*|| Back to beginning
D|-2---2---2---2----2---2---2---0-----0--*||
A|-3---3---3---3----3---3---3-------------||
E|----------------------------------------||

Repeat 1st part
Repeat 2nd part... then, go to Outro (x2):
Ф   C	       G		C	     D
e|-3-2-3---2-3-3---------3-2-3---2-3-3s5---0-------|
B|-1---1---1---3----3----1---1---1-----3---3-------|
G|-0---0---0---0----0----0---0---0-----2---2-------| 
D|-X---X---X---0----0----X---X---X-----0---0-------|
A|-3---3---3---2----2----3---3---3-----------------|
E|-------------3----3------------------------------|
					 CV
   C		G	  C		 D	       D.C.
e|-3-2-3---2-3-3---------3-2-3---2-3-3s7---5--3--2---||
B|-1---1---1---3----3----1---1---1-----7---7--3--3---||
G|-0---0---0---0----0----0---0---0-----7---7--2--2---||
D|-X---X---X---0----0----X---X---X-----7---7--0--0---||
A|-3---3---3---2----2----3---3---3-----5---5---------||
E|-------------3----3--------------------------------||

Login or Register to remove this ad.