A Momentary Rest (Crisis Core: Final Fantasy VII) Guitar Tab

Submitted: Jul 10, 2010 by hslesperance (Last updated: Jan 19, 2011)

5
Average: 5 (4 votes)
Download | Listen
Game: Crisis Core: Final Fantasy VII
Composer(s): Takeharu Ishimoto
Style: 2 or more instruments, Transcription
Series: Final Fantasy

AutoScroll: Slow | Medium | Fast
A Momentary Rest
Crisis Core: Final Fantasy VII
Composed by Takeharu Ishimodo
Tabbed by hslesperance
7/10/10

Standard Tuning


Guitar 1

e------5--6-----------5---------------------------8---
B---8--------6--8--6-------8-6--5-----------5--8------
G-------------------------------------5--7------------
D----------------------------------5------------------
A-----------------------------------------------------
E-----------------------------------------------------

Guitar 2
    v        v        v
e-----------------------------------------------------
B-----------------------------------------------------
G---------------------2-------------------------------
D---5--------3--------3---------2---------------------
A---5--------5------------------3---------------------
E-----------------------------------------------------

v - downstroke arpeggio
Login or Register to remove this ad.