Last Order (Crisis Core: Final Fantasy VII) Guitar Tab

Submitted: Jul 01, 2010 by El_Nombre (Last updated: Jul 01, 2010)

5
Average: 5 (2 votes)
Download | Listen
Game: Crisis Core: Final Fantasy VII
Composer(s): Takeharu Ishimoto
Style: 2 or more instruments, Transcription
Series: Final Fantasy

AutoScroll: Slow | Medium | Fast
Last Order / Last Order-Crisis Mix
Last Order OVA / Crisis Core: Final Fantasy VII
Composer: Takeharu Ishimoto
Tabber: El_Nombre
Date: 2007
CGCFAD (or just use drop D if you don't want to retune)


Guitar 1
D|------------------------|------------------------|------------------------|
A|------------------------|------------------------|------------------------|
F|------------------------|------------------------|------------------------|
C|------------------------|------------------------|------------------------|
G|--2-2----------2-2------|--2-2----------2-2------|--3b~-------------------|
C|--2-2----------2-2------|--2-2----------2-2------|--3b~-------------------|x2

Guitar 1
D|------------------------|
A|------------------------|
F|------------------------|
C|------------------------|
G|--0h2-2-2-0h2-2-0-2h3p2-|
C|--0h2-2-2-0h2-2-0-2h3p2-|x8

	Guitar 2
	D|------------------------|
	A|----------7-------------|
	F|--6h8~------8~-----6~---|
	C|------------------------|
	G|------------------------|
	C|------------------------|x4

Guitar 1
D|------------------------|------------------------|
A|------------------------|------------------------|
F|------------------------|------------------------|
C|------------------------|------------------------|
G|--0-0----2-3-2----0-0---|--1b-1b-1b--------------|
C|--0-0----2-3-2----0-0---|--1b-1b-1b--------------|x4

Guitar 1
D|------------------------|------------------------|------------------------|
A|------------------------|------------------------|------------------------|
F|------------------------|------------------------|------------------------|
C|------------------------|------------------------|------------------------|
G|--8-6-8-9-8--6-6~--9h11-|-11-6-6-----8-6-8-9-8---|-6-6~--8-9--11----------|
C|--8-6-8-9-8--6-6~--9h11-|-11-6-6-----8-6-8-9-8---|-6-6~--8-9--11----------|

Guitar 1
D|------------------------|------------------------|                  |------------|
A|------------------------|------------------------|                  |------------|
F|------------------------|------------------------|                  |------------|
C|------------------------|------------------------|                  |-x-x-x--x-x-|
G|--2-0-2-0--3-3--4b------|--0-2-3--5-3-0----------|     4th + 8th    |-x-x-x--x-x-|
C|--2-0-2-0--3-3--4b------|--0-2-3--5-3-0----------|x8  time end with |-x-x-x--x-x-|

	Guitar 2
	D|------------------------|
	A|------------------------|
	F|------------------------|
	C|--3h4-3h4--6~-----6b7~--|
	G|------------------------|
	C|------------------------|

Guitar 1
D|------------------------|------------------------|
A|------------------------|------------------------|
F|------------------------|------------------------|
C|------------------------|------------------------|
G|--0-0----2-3-2----0-0---|--1b-1b-1b--------------|
C|--0-0----2-3-2----0-0---|--1b-1b-1b--------------|x6

Guitar 1
D|------------------------|
A|------------------------|
F|------------------------|
C|------------------------|
G|--0h2-2-2-0h2-2-0-2h3p2-|
C|--0h2-2-2-0h2-2-0-2h3p2-|x8


	Guitar 2
	D|------------------------|
	A|----------7-------------|
	F|--6h8~------8~-----6~---|
	C|------------------------|
	G|------------------------|
	C|------------------------|x4

Guitar 1
D|------------------------|------------------------|              |------------|
A|------------------------|------------------------|              |------------|
F|------------------------|------------------------|              |------------|
C|------------------------|------------------------|    2nd time  |------------|
G|--8-8-8--9-9-9--8-8-8---|-11-11-11---------------|    replace   |--x--x--x---|
C|--8-8-8--9-9-9--8-8-8---|-11-11-11---------------|x2  11s with  |--x--x--x---|

Guitar 1
D|------------------------|------------------------|              |------------|
A|------------------------|------------------------|              |------------|
F|------------------------|------------------------|              |------------|
C|------------------------|------------------------|              |------------|
G|--1-1-1--------2b-2b----|--1-1-1--------4--3-----|    2nd time  |--x--x--x---|
C|--1-1-1--------2b-2b----|--1-1-1--------4--3-----|x4  end with  |--x--x--x---|

Guitar 1
D|------------------------|------------------------|              |------------|
A|------------------------|------------------------|              |------------|
F|------------------------|------------------------|              |------------|
C|------------------------|------------------------|              |-x-x-x--x-x-|
G|--2-0-2-0--3-3--4b------|--0-2-3--5-3-0----------|    4th time  |-x-x-x--x-x-|
C|--2-0-2-0--3-3--4b------|--0-2-3--5-3-0----------|x8  end with  |-x-x-x--x-x-|

	Guitar 2
	D|------------------------|
	A|------------------------|
	F|------------------------|
	C|--3h4-3h4--6~-----6b7~--|
	G|------------------------|
	C|------------------------|x4

Guitar 1
D|------------------------|
A|------------------------|
F|------------------------|
C|--------------x-x-x-x-x-|
G|-2h3p2p0-4/0--x-x-x-x-x-|
C|-2h3p2p0-4/0--x-x-x-x-x-|







(Alternatives for main riff)
D|------------------------|------------------------|
A|------------------------|------------------------|
F|------------------------|------------------------|
C|------------------------|------------------------|
G|--2-0-2-0--3-3--4b------|--0-3-0--5-3-0----------|
C|--2-0-2-0--3-3--4b------|--0-3-0--5-3-0----------|

or

D|------------------------|------------------------|
A|------------------------|------------------------|
F|------------------------|------------------------|
C|------------------------|------------------------|
G|--2-0-2-0--3-3--4b------|--0-3-4--5-3-0----------|
C|--2-0-2-0--3-3--4b------|--0-3-4--5-3-0----------|

Login or Register to remove this ad.