Ending Credits (Crash Team Racing) Bass/Guitar Tab

Submitted: Jul 03, 2015 by samisito

0
Download | Listen
Game: Crash Team Racing
Composer(s): Mark Mothersbaugh, Josh Mancell
Style: 2 or more instruments, Alternate picking, Transcription

AutoScroll: Slow | Medium | Fast
Song: Ending Credits
Game: Crash Team Racing
Composers: Mutato Muzika, Mark Mothersbaugh, Josh Mancell
Tabbed by: samisito
Tabbed at: 07/02/2015



Bass
G|-----------------|-----------------|-----------------|-----------------|
D|---------------0-|-----------------|---------------0-|-----------------|
A|-------0---1-----|-------0-----4-5-|-------0---1-----|-------0---------|
E|-3---------------|-3---------0-----|-3---------------|-3---------1-0-1-|




Electric Guitar (Distortion)
E|-----------------|-----------------|-----------------|-----------------| \
B|-----------------|-----------------|-----------------|-----------------|  |
G|---------------7-|-------------6-7-|---------------7-|-----------------|  |
D|-5-----7---8---7-|-5-----7-----6-7-|-5-----7---8---5-|-5-----7---3-2-3-|  |
A|-5-----7---8---5-|-5-----7-----4-5-|-5-----7---8---5-|-5-----7---3-2-3-|  |
E|-3-----5---6-----|-3-----5---0-----|-3-----5---6-----|-3-----5---1-0-1-|  |
                                                                            | x2
Bass                                                                        |
G|-----------------|-----------------|-----------------|-----------------|  |
D|---------------0-|-----------------|---------------0-|-----------------|  |
A|-------0---1-----|-------0-----4-5-|-------0---1-----|-------0---------|  |
E|-3---------------|-3---------0-----|-3---------------|-3---------1-0-1-| /




Bass
G|-----------------|-----------------|-----------------|-----------------|
D|---2-0-----------|---2-0-----------|---2-0-----------|---2-0-----0-----|
A|-----------------|-----------------|-----------------|-----------------|
E|-0-----3-1-0-1-3-|-0-----3-1-0-3---|-0-----3-1-0-1-3-|-0-----3-1---5---|




Electric Guitar (Clean)
E|-----------------|-----------------|-----------------|-----------------|
B|-----------------|-----------------|-----------------|-----------------|
G|-----------------|-----------------|-----------------|-----------------|
D|-----------------|-0-----------2---|-----------------|-----------------|
A|-2-----------0---|-----------------|-2---------------|-0---------------|
E|-----------------|-----------------|-------------3---|-----------------|

Bass
G|-----------------|-----------------|-----------------|-----------------|
D|---2-0-----------|---2-0-----------|---2-0-----------|---2-0-----0-----|
A|-----------------|-----------------|-----------------|-----------------|
E|-0-----3-1-0-1-3-|-0-----3-1-0-3---|-0-----3-1-0-1-3-|-0-----3-1---5---|




Electric Guitar (Distortion)
E|-----------------|-----------------|-----------------|-----------------| \
B|-----------------|-----------------|-----------------|-----------------|  |
G|---------------7-|-------------6-7-|---------------7-|-----------------|  |
D|-5-----7---8---7-|-5-----7-----6-7-|-5-----7---8---5-|-5-----7---3-2-3-|  |
A|-5-----7---8---5-|-5-----7-----4-5-|-5-----7---8---5-|-5-----7---3-2-3-|  |
E|-3-----5---6-----|-3-----5---0-----|-3-----5---6-----|-3-----5---1-0-1-|  |
                                                                            | x2
Bass                                                                        |
G|-----------------|-----------------|-----------------|-----------------|  |
D|---------------0-|-----------------|---------------0-|-----------------|  |
A|-------0---1-----|-------0-----4-5-|-------0---1-----|-------0---------|  |
E|-3---------------|-3---------0-----|-3---------------|-3---------1-0-1-| /




Electric Guitar (Distortion)
E|-----------------|-----------------|-----------------|-----------------|
B|-----------------|-----------------|-----------------|-----------------|
G|-----------------|-----------------|-----------------|-----------------|
D|-----5-------2---|-5-7---2---------|-----5-------2---|-5-7---2---2-----|
A|-7---5-------2---|-5-7---2---------|-7---5-------2---|-5-7---2---2-----|
E|-5---3-------0---|-3-5---0---------|-5---3-------0---|-3-5---0---0---0-|

Bass
G|-----------------|-----------------|-----------------|-----------------|
D|---2-0-----------|---2-0-----------|---2-0-----------|---2-0-----0-----|
A|-----------------|-----------------|-----------------|-----------------|
E|-0-----3-1-0-1-3-|-0-----3-1-0-3---|-0-----3-1-0-1-3-|-0-----3-1---5---|




Electric Guitar (Distortion)
E|-----------------|-----------------|-----------------|-----------------|
B|-----------------|-----------------|-----------------|-----------------|
G|-----------------|-----------------|-----------------|-----------------|
D|-----5-------2---|-5-7---2---------|-----5-------2---|-5-7---2-----5---|
A|-7---5-------2---|-5-7---2---------|-7---5-------2---|-5-7---2-----5---|
E|-5---3-------0---|-3-5---0---------|-5---3-------0---|-3-5---0---0-3-0-|

Electric Guitar (Clean)
E|-----------------|-----------------|-----------------|-----------------|
B|-----------------|-----------------|-----------------|-----------------|
G|-----------------|-----------------|-----------------|-----------------|
D|-0-----------2---|-----------------|-0-----------2---|-----------------|
A|-----------------|-2---------------|-----------------|-2---------------|
E|-----------------|-----------------|-----------------|-----------------|

Bass
G|-----------------|-----------------|-----------------|-----------------|
D|---2-0-----------|---2-0-----------|---2-0-----------|---2-0-----0-----|
A|-----------------|-----------------|-----------------|-----------------|
E|-0-----3-1-0-1-3-|-0-----3-1-0-3---|-0-----3-1-0-1-3-|-0-----3-1---5---|




Electric Guitar (Distortion)
E|-----------------|-----------------|-----------------|-----------------| \
B|-----------------|-----------------|-----------------|-----------------|  |
G|-----------------|-----------------|-----------------|-----------------|  |
D|-5-----2---------|-5-----2---------|-5-----2---------|-5-----2-----5---|  |
A|-5-----2---------|-5-----2---------|-5-----2---------|-5-----2-----5---|  |
E|-3-----0-----0---|-3-----0---------|-3-----0-----0---|-3-----0---0-3-0-|  |
                                                                            | x2
Bass                                                                        |
G|-----------------|-----------------|-----------------|-----------------|  |
D|-----------------|-----------------|-----------------|-----------------|  |
A|-----------------|-----------------|-----------------|-----------------|  |
E|-3-0-3-0-3-5---5-|-3-0-3-0---0-0-1-|-3-0-3-0-3-5---5-|-3-0-3-5---0-3-0-| /




Electric Guitar (Clean)
E|-----------------|-----------------|-----------------|-----------------|
B|-----------------|-----------------|-----------------|-----------------|
G|-----------------|-0---------------|-----------------|-----------------|
D|-2-----------0---|-------2---------|-0-----------2---|-----------------|
A|-----------------|-------------2---|-----------------|-2---------------|
E|-----------------|-----------------|-----------------|-----------------|

Bass
G|-----------------|-----------------|-----------------|-----------------|
D|-----------------|-----------------|---------2-------|-----------------|
A|-----------------|-1---1-----------|-----------------|-------0---1-----|
E|-3-0---0-3-5---0-|-------3---0---0-|-3-0---0---0---0-|-3---3---------3-|




Electric Guitar (Distortion)
E|-----------------|-----------------|-----------------|-----------------| \
B|-----------------|-----------------|-----------------|-----------------|  |
G|-----------------|-----------------|-----------------|-----------------|  |
D|-2-----2---------|-2-----2---5-7-5-|-2-----2---------|-2-----2---5-7-8-|  |
A|-2-----2---------|-2-----2---5-7-5-|-2-----2---------|-2-----2---5-7-8-|  |
E|-0-----0---------|-0-----0---3-5-3-|-0-----0---------|-0-----0---3-5-6-|  |
                                                                            | x2
Bass                                                                        |
G|-----------------|-----------------|-----------------|-----------------|  |
D|---2-0-----------|---2-0-----------|---2-0-----------|---2-0-----0-----|  |
A|-----------------|-----------------|-----------------|-----------------|  |
E|-0-----3-1-0-1-3-|-0-----3-1-0-3---|-0-----3-1-0-1-3-|-0-----3-1---5---| /




Electric Guitar (Distortion)
E|-----------------|-----------------|-----------------|-----------------|
B|-----------------|-----------------|-----------------|-----------------|
G|-----------------|-----------------|-----------------|-----------------|
D|-5-----2---------|-5-----2---------|-5-----2---------|-5-----2-----5---|
A|-5-----2---------|-5-----2---------|-5-----2---------|-5-----2-----5---|
E|-3-----0-----0---|-3-----0---------|-3-----0-----0---|-3-----0---0-3-0-|

Bass
G|-----------------|-----------------|-----------------|-----------------|
D|-----------------|-----------------|---------2-------|-----------------|
A|-----------------|-1---1-----------|-----------------|-------0---1-----|
E|-3-0---0-3-5---0-|-------3---0---0-|-3-0---0---0---0-|-3---3---------3-|




Bass
G|-----------------|-----------------|-----------------|-----------------|
D|---------------0-|-----------------|---------------0-|-----------------|
A|-------0---1-----|-------0-----4-5-|-------0---1-----|-------0---------|
E|-3---------------|-3---------0-----|-3---------------|-3---------1-0-1-|

Login or Register to remove this ad.