Ads

Turtle woods (Crash Bandicoot: On The Run!) Bass Tab

Submitted: Jun 26, 2021 by samisito (Last updated: Jul 01, 2021)

5
Average: 5 (1 vote)
Download | Listen
Game: Crash Bandicoot: On The Run!
Composer(s): Sebastian Aav
Style: Transcription

AutoScroll: Slow | Medium | Fast
Song: Turtle woods
Game: Crash Bandicoot: On The Run!
Composers: Sebastian Aav
Tabbed by: samisito
Tabbed at: 06/26/2021


Standard E tuning:

G|-------------------------|-------------------------|----------------------6--|-------6--------4-----3--|
D|-------6-----------------|----9--------8-----6-----|-------4-----------------|-------------------------|
A|-------------------------|-------------------------|-------------------------|----4-----4--2-----2-----|
E|-4--------------4-----7--|-------7--7-----7-----4--|-2--------------2--------|-------------------------|

G|-------------------------|-------------------------|----------------------6--|-------6--------4-----5--|
D|-------6-----------------|----9--------8-----6-----|-------4-----------------|-------------------------|
A|-------------------------|-------------------------|-------------------------|----4-----4--2-----3-----|
E|-4--------------4-----7--|-------7--7-----7-----4--|-2--------------2--------|-------------------------|



G|-------6-----------------|-------------------------|----------------------11-|-------11-------9-----8--|
D|-------------------------|----14-------13----11----|-------9-----------------|-------------------------|
A|-4-----------------------|-------------------------|-------------------------|----9-----9--7-----7-----|
E|----------------9-----12-|-------12-12----12----9--|-7--------------7--------|-------------------------|

G|-------------------------|-------------------------|----------------------11-|-------------------------|
D|-------11----------------|----14-------13----11----|-------9-----------------|-------------------------|
A|-------------------------|-------------------------|-------------------------|-------11p9--------------|
E|-9--------------9-----12-|-------12-12----12----9--|-7--------------7--------|-------------11p9--7s-9--|



G|-------------------------|-------------------------|----------------------11-|-------11-------9-----11-|
D|-------11----------11----|----14-------13----11----|-------9-----------------|-------------------------|
A|-------------------------|-------------------------|-------------------9-----|----9-----9--7-----9-----|
E|-9-----------9--------12-|-------12-12----12----9--|-7-----------7-----------|-------------------------|

G|-------------------------|-------------------------|----------------------11-|-------11-------9-----11-|
D|-------11----------------|-------14----13----11----|-------9-----------------|-------------------------|
A|-------------------------|-------------------------|-------------------9-----|----9-----9--7-----9-----|
E|-9--9-----9-----9-----9--|-12-12----12----12----9--|-7--7-----7-----7--------|-------------------------|



G|-------------------------|-------------------------|----------------------11-|-------11-------9-----8--|
D|-------11----------------|----14-------13----11----|-------9-----------------|-------------------------|
A|-------------------------|-------------------------|-------------------------|----9-----9--7-----7-----|
E|-9--------------9-----12-|-------12-12----12----9--|-7--------------7--------|-------------------------|

G|-------------------------|-------------------------|-------------------------|-------13p11-------------|
D|-------11----------------|----14-------13----11----|-------9--------------11-|-------------13p11-11h13-|
A|-------------------------|-------------------------|-------------------------|-------------------------|
E|-9--------------9-----12-|-------12-12----12----9--|-7--------------7--------|-------------------------|



G|-------------------------|-------------------------|----------------------11-|-------11-------9-----11-|
D|-------11----------11----|----14-------13----11----|-------9-----------------|-------------------------|
A|-------------------------|-------------------------|-------------------9-----|----9-----9--7-----9-----|
E|-9-----------9--------12-|-------12-12----12----9--|-7-----------7-----------|-------------------------|

G|-------------------------|-------------------------|-------------------------|
D|-------11----------------|-------14----13----11----|-------9-----------------|
A|-------------------------|-------------------------|-------------------------|
E|-9--9-----9-----9-----9--|-12-12----12----12----9--|-7--7-----7-----7-----9--|
Login or Register to remove this ad.

2 comments on Turtle woods

Thanks

5

Thanks for the tabs!

Where did you get the backing track?, lol

Anyhow, thank you so much for the tabs :D

Guitar pro

I made it myself using Guitar Pro. It's uploaded here btw.
It's kind of fun to transcribe these videogames songs haha.
Hope you enjoy!