Ads

Main Theme (Crash Bandicoot 3: Warped) Guitar Tab

Submitted: Sep 17, 2011 by Eduardo (Last updated: Sep 18, 2011)

4.6
Average: 4.6 (5 votes)
Download | Listen
Game: Crash Bandicoot 3: Warped
Composer(s): Mark Mothersbaugh, Josh Mancell
Style: Arrangement, Fingerstyle

AutoScroll: Slow | Medium | Fast
SONG NAME:MAIN THEME
GAME:CRASH BANDICOOT 3: WARPED (PSone )
COMPOSER: Mutato Muzika (Mark Mothersbaugh and Josh Mancell)
TABBED & ARRANGED BY:EDUARDO
CONTACT:  [email protected]
TAB FINISHED: 17/09/2011

STANDARD TUNING (EBGDAE)
CAPO 3

E|-------------------------|
B|-------------------------|  
G|-------------------------| 3X
D|-------------------------|
A|-------2--4--2--0--------|
E|----2-----------------0--|

E|-------------------------|-------------------------|
B|-------------------------|--2--2--0-----0---0------|
G|-------------------------|-------------------------|
D|-------------------------|-----------4-------------|
A|-------0--0--0--2--------|-----2--4--2--0----------|
E|---2---------------------|--2---------------0------|

E|-------------------------|-------------------------|
B|--2--2-------------------|--2--2--0----------------|
G|--------5--4-------------|--------------4--5-------|
D|-------------------------|-----------4-------------|
A|-----2--4--2-0-----------|-----2--4--2--0----------|
E|--2-------------0--------|--2--------------0-------|

E|-------------------------|---------------------------|
B|--------------0----------|--2------2----0------0--0--|
G|--4--2--2--2-------------|---------------------------|
D|-------------------------|------4----4------2--------|
A|-----0--0--0--2----------|--------------4---4--0-----|
E|--2----------------------|--2---------------------0--|

E|-------------------------|-------------------------|
B|--2----2-----------------|--2-----2----0-----------|
G|-------------5--4--------|-------------------4--5--|
D|-----4---4---------------|------4---4-----4--------|
A|-------------4--2--0-----|-------------------0-----|
E|--2-------------------0--|--2----------4--------0--|

E|-------------------------|-------------------------|
B|---------------0---------|--2-------------4--------|
G|--4---2--2--2------------|--1----------------------|
D|-------------------------|-------------------------|
A|------0--0--0--2---------|--4----4----4---4--------|
E|--2----------------------|-------------------------|

E|-------------------------|--------------2----------|
B|--0--------------2-------|--3----------------------|
G|--4----------------------|--2----------------------|
D|--4----------------------|--0---0---0---0----------|
A|-------2----2----2-------|-------------------------|
E|-------------------------|-------------------------|

E|---------------------------|-------------------------|
B|--5---------3p2------------|--2---------------4------|
G|--4--------------5p4--2h4--|--1----------------------|
D|---------------------------|-------------------------|
A|--2----2-------------------|--4-----4----4----4------|
E|---------------------------|-------------------------|

E|-------------------------|--------------2----------|
B|--0--------------2-------|--3----------------------|
G|--4----------------------|--2----------------------|
D|--4----------------------|--0---0---0---0----------|
A|-------2----2----2-------|-------------------------|
E|-------------------------|-------------------------|

E|---------------------------|---------------------------|
B|--5--------3p2-------------|---------------------------|
G|--4-------------5p4---2p1--|---------------------------|
D|---------------------------|---4-----------------------|
A|--2----2-------------------|--------2---4---2--0-------|
E|---------------------------|---2------------------0----|

E|-------------------------|
B|-------------------------|
G|-------------------------|  2x
A|-------2--4--2--0--------|
E|----2-----------------0--|

E|-------------------------|
B|-------------------------|
G|-------------------------|
D|-------------------------|
A|-------0---0---0----2----|
E|---2---------------------|

E|-------------------------|
B|---------2---------------|
G|------4------4--2--------|  3x
D|--4-----------------2----|
A|------2--4---2--0--------|
E|--2-----------------0----|

E|-------------------------|
B|---------------0---------|
G|-----2---2--2------------|
D|--4----------------------|
A|-----0---0--0--2---------|
E|--2----------------------|

E|-------------------------|---------------------------|
B|-------------------------|------------------------2--|
G|-------------------------|-----------------2---4-----|  2x
D|--4-----4-----4----2-----|----4----4----4------------|
A|--4-----4-----4----2-----|----4----4----4------------|
E|-------------------------|---------------------------|

E|--2p0-----------------------|------------------------------|
B|-------2-1-0----------------|--------------2---------------|
G|------------------2---------|------1-2-3-4------3---4---5--|
D|---------------4-----2---2--|--4---------------------------|
A|----------------------------|------------------------------|
E|----------------------------|------------------------------|

E|--2p0-----------------------|----------2---2-4-5-4-2-------0--2-|
B|-------2-1-0----------------|--------2---2-----------2---2------|
G|------------------2---------|--4-2-4-------------------4--------|
D|---------------4-----2---2--|-----------------------------------|
A|----------------------------|-----------------------------------|
E|----------------------------|-----------------------------------|


E|-------------------------|-------------------------|
B|-------------------------|-------------------------|
G|-------------------------|-------------------------| 2X
D|-------4---------2-------|-------4---------2-------|
A|-------4---------2-------|-------4---------2-------|
E|-------------------------|-------------------------|


E|-------------------------|
B|-------------------------|  
G|-------------------------| 
D|----4--------------------|
A|-------2--4--2--0--------|
E|----2-----------------0--|

E|-------------------------|
B|-------------------------|  
G|-------------------------| 2X
D|-------------------------|
A|-------2--4--2--0--------|
E|----2-----------------0--|


E|-------------------------|
B|-------------------------|  
G|-------------------------| 
D|-------------------------|
A|---------0---0---0---2---|
E|----2--------------------|


E|-------------------------|
B|---------2---------------|
G|------4------4--2--------|  3x
D|--4-----------------2----|
A|------2--4---2--0--------|
E|--2-----------------0----|

E|-------------------------|-------------------------|
B|---------------0---------|-------------------------|
G|-----2---2--2------------|----2--------------------|
D|--4----------------------|----2--------------------|
A|-----0---0--0--2---------|----0--------------------|
E|--2----------------------|-------------------------|

Login or Register to remove this ad.

2 comments on Main Theme

:o

complex

thanks for tab :)

5

thanks for tab :)