Login or Register to remove this ad.

The Real Folk Blues (Hernan Gonzalez Version) (Cowboy Bebop) Guitar Tab

Submitted: Nov 08, 2017 by MissingTime (Last updated: Nov 09, 2017)

0
Download | Listen
Game: Cowboy Bebop
Composer(s): Yoko Kanno
Style: Arrangement, Fingerstyle, Transcription

AutoScroll: Slow | Medium | Fast
Cowboy Bebop
The Real Folk Blues
Yoko Kanno
Arranged by Hernan Gonzalez
Tabbed my MissingTime
11/8/2017

(/) Slide Up  (\) Slide Down  (h) Hammer On  (p) Pull Off  (b) Bend (r) Release (v) Vibrato


E|--0--2--0--2--0---------------5/7--5----------------
B|-----------------3---------3----------7-----8p7--7--
G|------------------------4--4-------------7----------
D|------------------------4----------0----------------
A|--2-----------------2-------------------------------
E|----------------------------------------------------

E|--------0-----------------0--2--0------------0--
B|-----7-----3-----3-----3--------------3--3------
G|-----7--------4-----4---------------------------
D|--0---------------------------------------------
A|------------------------------------------------
E|-----------0-----------------------4------------

E|------------2-----------0--2--0--2--0--------------5/7--5-----7-----
B|--3---------3--2--2--2-----------------3--------3----------------7--
G|------------4--2--4--2-----------------------4--4----------7--------
D|--------4---4--2--2--2-----------------------4----------0-----------
A|-----2------2-----------2-----------------2-------------------------
E|--------------------------------------------------------------------

E|--------0-----------------0--2--0-----------0---
B|-----7-----3-----3-----3--------------3--3------
G|-----7--------4-----4---------------------------
D|--0---------------------------------------------
A|------------------------------------------------
E|-----------0-----------------------4------------

E|--------------2--------------0--------------2--------------7-----5--------2--------------2---
B|--3-----------3-----0--0--0--------0--0--0--------0--0--0-----------7--5--------------2--2---
G|-----------4--4-----------------------2--------------------------------------------4-----3---
D|--------4-----4-----------------------------------------------------------------2--------2---
A|-----2--------2--------2--------------------------------------------------------4--------4---
E|-----------------0--------------2--------------4--------------3--------------2-----------2---

E|-----5--7--10------------7--7--------7--10--9-----------7--9----------------
B|--7------------------10--------------9--------------------------------------
G|---------------------7-------------------------------9----------------------
D|------------------9---------------9---------------8--------------8--9\8-----
A|---------------7---------------7---------------9--------------9----------9--
E|----------------------------------------------------------------------------

E|--------10--7-----------------------0-----------------
B|-----7------------10-----7-------------------5--7-----
G|-----7----------------------9--7----------7--------7--
D|----------------------7-------------------------------
A|---------------9-----------------------------7--------
E|--7------------------------------------5--------------

E|---------------------------------------------------------------------
B|------------------------------------------2-----------0--2--------2--
G|--------4--7v-----------4--4-----------7-----------0--------------0--
D|--4--7---------------6--------------6-----------2--------------2--2--
A|------------------5--------------5-----------1--------------1-----1--
E|---------------4--------------4--------------------------------------

E|--------10--7--5--------------0--------0--2--------------0--2-----5--2--------0--
B|-----5---------------7--5-----------3--------0-----0--3--------------2--------0--
G|-----5---------------------7-----------------------------------------2--------0--
D|-----5------------------------------------------------------------------------2--
A|--0---------------5--------------------------------------------------------2-----
E|---------------------------------4--------------3--------------2--------0--------

E|--2--5--2--------------------------------------------------------------------------------------
B|--2--2-----5--3--5--3-----------------------------3-----------3--------3-----------------------
G|--3--3--------------------4-----2--4--4--2--4--2-----------4--4--------4-----2--4--4--2--4--2--
D|--2--2-----------------4-----4--------------------------4-----4-----4-----4--------------------
A|--4--4-----------2-----------------------------------0-----------------------------------------
E|--2--2-----------------------------------------------------------4-----------------------------

E|--------------------------2------
B|--------0-----------0-----3------
G|--------0-----------0-----4------
D|--------0--0--4--2--0-----4------
A|--0--------------------2---------
E|-----3---------------------------
Login or Register to remove this ad.