Ads

The Real Folk Blues (Cowboy Bebop) Guitar Tab

Submitted: Jan 03, 2022 by Jerimundo (Last updated: Jan 05, 2022)

4.2
Average: 4.2 (5 votes)
Download | No audio :(
Game: Cowboy Bebop
Composer(s): Yoko Kanno
Style: Arrangement, Fingerstyle

Click here for a video example.

AutoScroll: Slow | Medium | Fast

Music: The Real Folk Blues
Artist: Seatbelts
Arr.: Vitor Yoiti Mizutani (that's me!)
Inspired by dokurobelie's cover: https://www.nicovideo.jp/watch/sm19712585

PDF: https://drive.google.com/file/d/1ACyrTISVbWowuibJJWU6nkQin6RbRKqi/view?usp=sharing
Video: https://youtu.be/pGgfZmu34nI

Track 1 (Capo 2)

            ^  ^    v v ^ v  ^ v           ^  v ^ ^ v ^  ^ v ^    
      E  E  E  S  S S S S E  S E     E  E  E  S S S S E  S S S S  
E||---------0-------0-0---0----3--|------------------------------|
B||---------0--0h-3-0-0-3-0--3-0--|--------3--3-3-3-3-3--3-3-3-x-|
G||*--------0--0--------0----0----|--------0--0-0-0-0-0--0-0-2-x-|
D||*--------2--2------------------|--------0--0-0-0-0-0--0-0-0-x-|
A||---------2---------------------|--------2----2---2-2--2-2-0---|
E||---0--0--0---------------------|--3--3--3--------3----3-------|


  ^  ^  ^  ^    v v ^ v    ^ v          ^  v                      
  E  E  E  S  S S S S E  S S S    E  E  E  S S S S S S S S S S    
--0-----0-------0-0---0--------|--------0----3-3-0---3-0---3-0--||
--0-----0--0h-3-0-0-3-0--3---3-|--------0----------0-----0------||
--0--0--0--0--------0--------0-|--------0--0-------------------*||
--2--2--2--2---------------2---|-------------------------------*||
--4--4--4------------------4---|--3--3--3--3--------------------||
--x----------------------------|--------------------------------||


                                  ^     ^                        
   S S S S E  S S S E.  S E  S    E  E  E  S S S S S S  S S S S  
-----------------------------0-|--------------------------------|
-----0-----0-------------------|--3-----3--1-0--------------0---|
*--2-----2-0--2-0---------0----|--0-----0----------0------2---2-|
*----------x--------2----------|--0-----0-------------------2---|
------------------------2------|--2--------------2---2h-3-------|
---0---0----------0-----0------|--3--3--3------3----------------|


          ^                                 ^  v     v ^  ^ ^ v ^  
  S S S S S S S S S S S S S S S S    S S E  E  S S S S E  S S S S  
----------------------------------|-------------------------------|
--------------0-------------------|---------0------x-3----3-------|
--0---0---0-2---2---------0---2-0-|---------0--0-0-x-2-2--2-2-2-2-|
----2---2-2-----------------------|----2----2--2-2-x-0-0--0-0-0-0-|
--0---0---0-------0---------------|---------2---------------------|
----------x---------3-0-3---3-0---|--0---0--0---------------------|


                     ^ v ^   ^      ^     ^                        
  S S S S E  S S S S S S S S S S    E  E  E  S S S S S S  S S S S  
-------------------------------0-|-----------0--------------------|
----0-----0----------------------|--3-----3----0--------------0---|
--2-----2-0--2-0-----------0-----|--0-----0----------0------2---2-|
----------x--------2-------------|--0-----0-------------------2---|
---------------------2-2-2---2---|--2-----2--------2---2h-3-------|
--0---0----------0---0-0-0---0---|--3--3--3------3----------------|


          ^                                ^  ^ v     ^  v ^ ^ ^  
  S S S S S S S S S S S S S S S S    E  E  E  S S S S E  S S S S  
----------------------------------|----------------------0-------|
--------------0-------------------|--------0------x-0-0--0-0-0-0-|
--0---0---0-2---2---------0---2-0-|--------0--0-0-x-0-0--0-0-0-0-|
----2---2-2-----------------------|-----2--2--2-2-x-2-2--2-2-2-2-|
--0---0---0-------0---------------|--------2--------2-2--2-2-2-2-|
----------x---------3-0-3---3-0---|--0--0--0----------0--0-------|


        ^  ^ v     ^  v ^ ^ ^                                 
  E  E  E  S S S S E  S S S S    S S S S E  S S S E.  S E  S  
--------0-------------0-------|----------------------------0-|
--------0--0-0-x-0-0--0-0-0-0-|----0-----0-------------------|
--------0--0-0-x-0-0--0-0-0-0-|--2-----2-0--2-0---------0----|
--------2--2-2-x-2-2--2-2-2-2-|----------x--------2----------|
--2--2--2--------2-2--2-2-2-2-|-----------------------2------|
--0--0--0----------0--0-------|--0---0----------0-----0------|


  ^     ^                                  ^                        
  E  E  E  S S S S S S  S S S S    S S S S S S S S S S S S S S S S  
--------------------------------|----------------------------------|
--3-----3--1-0--------------0---|--------------0-------------------|
--0-----0----------0------2---2-|--0---0---0-2---2---------0---2-0-|
--0-----0-------------------2---|----2---2-2-----------------------|
--2--------------2---2h-3-------|--0---0---0-------0---------------|
--3--3--3------3----------------|----------x---------3-0-3---3-0---|


         ^  v     v ^  ^ ^ v ^                       ^ v ^   ^    
  S S E  E  S S S S E  S S S S    S S S S E  S S S S S S S S S S  
-------------------------------|-------------------------------0-|
------0---------x-3----3-------|----0-----0----------------------|
---------0--0-0-x-2-2--2-2-2-2-|--2-----2-0--2-0-----------0-----|
----2----2--2-2-x-0-0--0-0-0-0-|----------x--------2-------------|
---------2---------------------|---------------------2-2-2---2---|
--0---0--0---------------------|--0---0----------0---0-0-0---0---|


  ^     ^                                  ^                        
  E  E  E  S S S S S S  S S S S    S S S S S S S S S S S S S S S S  
-----------0--------------------|----------------------------------|
--3-----3----0--------------0---|--------------0-------------------|
--0-----0----------0------2---2-|--0---0---0-2---2---------0---2-0-|
--0-----0-------------------2---|----2---2-2-----------------------|
--2-----2--------2---2h-3-------|--0---0---0-------0---------------|
--3--3--3------3----------------|----------x---------3-0-3---3-0---|


         ^  ^ v                    ^     ^       ^     ^       
  S S E  E  S S S S S S S S S S    E  E  S S S S E  E  S E  S  
---------0--------3-2-----------|-----------------------------|
---------0--0-0-x-----3-0-------|--1------------------------0-|
---------0--0-0-x---------2-0---|--2-----------2--------------|
----2-2--2--2-2-x-------------2-|--2--2--2-2-----2--2--2-2----|
---------2----------------------|--0-----0---0---2-----2------|
--0---0--0----------0---0-------|-----------------------------|


         ^      ^     ^    v                                 
  E  S S S E  S E  E  E  S S    E  S S E  S S S S E  E  S S  
--------------0--------------|------------------------------|
----------------1--3--0----0-|------------------------------|
----------------0-----0--2-0-|-----4-3-2----------------4-3-|
-------2-2-2-----------------|--------------4-3-2-----------|
--4--4---4------3-----3------|--2--2---2--2---2---2--2--2---|
-----------------------------|------------------------------|


                                   ^  ^  ^  ^ v  ^ v  ^ v ^ v  
  E  T T S S S S S E  S S S E.     E  E  E  S E  S E  S S S S  
-----------------0-2--------0---|--3-----3--0-0-----------3---|
-----------3---3---3----0-3-----|--1--1--1--1-1--1-1--1-1-1-1-|
--2--2-3-4---4-----4----x-------|--0--0--0--0-0--0-0--0-0-0-0-|
----------------------x-x-------|--2--2--x--2-2--2-2--2-2-2-2-|
--2--2-----2---2---2--x---------|--0-----x-------0----0-------|
------------------------3-------|-----------------------------|


  ^  ^  ^  ^ v  ^ v  ^ v ^ v    ^  ^  ^  ^  ^ v ^  ^  ^   
  E  E  E  S E  S E  S S S S    E  E  E  E  S S E  E  E   
--2----------2---------------|--------3--0---------------|
--3--3--3--5-3--3-3--3-3-3-3-|--------0--0--3---0--------|
--2--2--2--2-2--2-2--2-2-2-2-|--0--0--0--0--0-0-0--2--0--|
--4--4--x--4-4--4-4--4-4-4-4-|--2--2--2--2--2-2-2--2--2--|
--2-----x-------2----2-------|--2--2--x-----2-2-2--2--2--|
-----------------------------|--0--0--------0-0----0-----|


  ^  ^   ^   ^ v  ^    ^ v ^ v    ^  ^  ^  ^ v  ^ v  ^ v ^ v  
  E  S S S S S E  E  S S S S S    E  E  E  S E  S E  S S S S  
-------------------------0-----|--3-----3--0-0-----------3---|
-----------0---0-----0-3-0-----|--1--1--1--1-1--1-1--1-1-1-1-|
--2----0-2-------------0-0-----|--0--0--0--0-0--0-0--0-0-0-0-|
--4--4---4---4-4--2----2-2-2-2-|--2--2--x--2-2--2-2--2-2-2-2-|
--5--5---5---5-5--4----4-4-4-4-|--0-----x-------0----0-------|
-------------------------------|-----------------------------|


  ^  ^  ^  ^ v  ^ v  ^ v ^ v    ^  ^  ^  ^  ^ v ^   ^  ^   
  E  E  E  S E  S E  S S S S    E  E  E  E  S S S S E  E   
--2----------2---------------|--------3--0----------------|
--3--3--3--5-3--3-3--3-3-3-3-|--------0--0--3---0---------|
--2--2--2--2-2--2-2--2-2-2-2-|--0--0--0--0--2-----2----0--|
--4--4--x--4-4--4-4--4-4-4-4-|--2--2--2--2--4-4-4---4--0--|
--2-----x-------2----2-------|--2--2--x-----5-5-5---5--0--|
-----------------------------|--0--0----------------------|


  ^  ^   ^   ^   ^                ^  ^   ^  ^  ^  ^  ^  ^ v  
  E  S S S S S S E  S S S S E     E  S S E  E  E  E  E  S S  
-------------------------------|----------------------------|
-----------0---0---------------|--0--3-3-0-----------0------|
--2----0-2--------------0-2----|--0--0---0--0--0--0--0--0-0-|
--2--2---2---2---2----2--------|--0--0---0--0--0--0--0--0-0-|
--0--0---0---0---3--3---3---3--|----------------------------|
-------------------------------|--3--3---3--3--3--3--3--3-3-|


  ^                             ^  ^    v v ^ v  ^ v   
  H        E  Q    S S    E  E  E  S  S S S S E  S E   
--0--------0-----------|----------------0-0---0----3--|
--2-----------0----L---|--0--------0h-3-0-0-3-0--3-0--|
--2------------------2-|-----0--0--0--------0----0----|
--2--------------------|--------2--2------------------|
--0--------------------|--------2---------------------|
-----------------------|--0--0--0---------------------|


        ^  v ^ ^ v ^  ^ v ^      ^  ^  ^  ^    v v ^ v    ^ v  
  E  E  E  S S S S E  S S S S    E  E  E  S  S S S S E  S S S  
------------------------------|--0-----0-------0-0---0--------|
--------3--3-3-3-3-3--3-3-3-x-|--0-----0--0h-3-0-0-3-0--3---3-|
--------0--0-0-0-0-0--0-0-2-x-|--0--0--0--0--------0--------0-|
--------0--0-0-0-0-0--0-0-0-x-|--2--2--2--2---------------2---|
--------2----2---2-2--2-2-0---|--4--4--4------------------4---|
--3--3--3--------3----3-------|--x----------------------------|


  ^  ^  ^  v ^ ^ v ^  ^ v ^            ^  ^    v v ^ v  ^ v   
  E  E  E  S S S S E  S S S S    E  E  E  S  S S S S E  S E   
--------0--------0-0----------|--------0-------0-0---0----3--|
--------0--0-0-0-0-0--0-----x-|--------0--0h-3-0-0-3-0--3-0--|
--------0--0-0-0-0-0--0-0-0-x-|--------0--0--------0----0----|
--2--2--2--2-2-2-2-2--2-2-2-x-|--------2--2------------------|
--3--3--3----3---3-3--3-3-3---|--------2---------------------|
------------------------------|--0--0--0---------------------|


        ^  v ^ ^ v ^  ^ v ^      ^  ^  ^  ^    v v ^ v    ^ v  
  E  E  E  S S S S E  S S S S    E  E  E  S  S S S S E  S S S  
------------------------------|--0-----0-------0-0---0--------|
--------3--3-3-3-3-3--3-3-3-x-|--0-----0--0h-3-0-0-3-0--3---3-|
--------0--0-0-0-0-0--0-0-2-x-|--0--0--0--0--------0--------0-|
--------0--0-0-0-0-0--0-0-0-x-|--2--2--2--2---------------2---|
--------2----2---2-2--2-2-0---|--4--4--4------------------4---|
--3--3--3--------3----3-------|--x----------------------------|


  ^  ^  ^  v ^ ^ v ^  ^ v ^                                   
  E  E  E  S S S S E  S S S S    S S S S E  S S S E.  S E  S  
--------0--------0-0----------|----------------------------0-|
--------0--0-0-0-0-0--0-----x-|----0-----0-------------------|
--------0--0-0-0-0-0--0-0-0-x-|--2-----2-0--2-0---------0----|
--2--2--2--2-2-2-2-2--2-2-2-x-|----------x--------2----------|
--3--3--3----3---3-3--3-3-3---|-----------------------2------|
------------------------------|--0---0----------0-----0------|


  ^     ^                                  ^                        
  E  E  E  S S S S S S  S S S S    S S S S S S S S S S S S S S S S  
--------------------------------|----------------------------------|
--3-----3--1-0--------------0---|--------------0-------------------|
--0-----0----------0------2---2-|--0---0---0-2---2---------0---2-0-|
--0-----0-------------------2---|----2---2-2-----------------------|
--2--------------2---2h-3-------|--0---0---0-------0---------------|
--3--3--3------3----------------|----------x---------3-0-3---3-0---|


         ^  v     v ^  ^ ^ v ^                                 
  S S E  E  S S S S E  S S S S    S S S S E  S S S E.  S E  S  
-------------------------------|----------------------------0-|
------0---------x-3----3-------|----0-----0-------------------|
---------0--0-0-x-2-2--2-2-2-2-|--2-----2-0--2-0---------0----|
----2----2--2-2-x-0-0--0-0-0-0-|----------x--------2----------|
---------2---------------------|-----------------------2------|
--0---0--0---------------------|--0---0----------0-----0------|


  ^     ^                                  ^                        
  E  E  E  S S S S S S  S S S S    S S S S S S S S S S S S S S S S  
-----------0--------------------|----------------------------------|
--3-----3----0--------------0---|--------------0-------------------|
--0-----0----------0------2---2-|--0---0---0-2---2---------0---2-0-|
--0-----0-------------------2---|----2---2-2-----------------------|
--2--------------2---2h-3-------|--0---0---0-------0---------------|
--3--3--3------3----------------|----------x---------3-0-3---3-0---|


         ^  ^ v     ^  v ^ ^ ^    v     ^       ^     ^       
  S S E  E  S S S S E  S S S S    E  E  S S S S E  E  S E  S  
-----------------------0-------|-----------------------------|
---------0------x-0-0--0-0-0-0-|--1------------------------0-|
---------0--0-0-x-0-0--0-0-0-0-|--2-----------2--------------|
----2----2--2-2-x-2-2--2-2-2-2-|--2--2--2-2-----2--2--2-2----|
---------2--------2-2--2-2-2-2-|--0-----0---0---2-----2------|
--0---0--0----------0--0-------|-----------------------------|


         ^      ^     ^    v                                 
  E  S S S E  S E  E  E  S S    E  S S E  S S S S E  E  S S  
--------------0--------------|------------------------------|
----------------1--3--0----0-|------------------------------|
----------------0-----0--2-0-|-----4-3-2----------------4-3-|
-------2-2-2-----------------|--------------4-3-2-----------|
--4--4---4------3-----3------|--2--2---2--2---2---2--2--2---|
-----------------------------|------------------------------|


                                   ^  ^  ^  ^ v  ^ v  ^ v ^ v  
  E  T T S S S S S E  S S S E.     E  E  E  S E  S E  S S S S  
-----------------0-2--------0---|--3-----3--0-0-----------3---|
-----------3---3---3----0-3-----|--1--1--1--1-1--1-1--1-1-1-1-|
--2--2-3-4---4-----4----x-------|--0--0--0--0-0--0-0--0-0-0-0-|
----------------------x-x-------|--2--2--x--2-2--2-2--2-2-2-2-|
--2--2-----2---2---2--x---------|--0-----x-------0----0-------|
------------------------3-------|-----------------------------|


  ^  ^  ^  ^ v  ^ v  ^ v ^ v    ^  ^  ^  ^  ^ v ^   ^  ^   
  E  E  E  S E  S E  S S S S    E  E  E  E  S S S S E  E   
--2----------2---------------|--------3--0----------------|
--3--3--3--5-3--3-3--3-3-3-3-|--------0--0--3---0---------|
--2--2--2--2-2--2-2--2-2-2-2-|--0--0--0--0--0-0-0-2----0--|
--4--4--x--4-4--4-4--4-4-4-4-|--2--2--2--2--2-2-2---2--2--|
--2-----x-------2----2-------|--2--2--x-----2-2-2---2--2--|
-----------------------------|--0--0--------0-0-----0-----|


  ^  ^   ^   ^ v  ^    ^ v ^ v    ^  ^  ^  ^ v  ^ v  ^ v ^ v  
  E  S S S S S E  E  S S S S S    E  E  E  S E  S E  S S S S  
-------------------------0-----|--3-----3--0-0-----------3---|
-----------0---0-----0-3-0-----|--1--1--1--1-1--1-1--1-1-1-1-|
--2----0-2-------------0-0-----|--0--0--0--0-0--0-0--0-0-0-0-|
--4--4---4---4-4--2----2-2-2-2-|--2--2--x--2-2--2-2--2-2-2-2-|
--5--5---5---5-5--4----4-4-4-4-|--0-----x-------0----0-------|
-------------------------------|-----------------------------|


  ^  ^  ^  ^ v  ^ v  ^ v ^ v    ^  ^  ^  ^    ^ v   ^     ^  
  E  E  E  S E  S E  S S S S    E  E  E  E  S S S S S. S. S  
--2-----2----2---------------|--------------0---------------|
--3--3--3--5-3--3-3--3-3-3-3-|--------0--3--0---------------|
--2--2--2--2-2--2-2--2-2-2-2-|--0--0--0--0--0---2---2--0----|
--4--4--x--4-4--4-4--4-4-4-4-|--2--2--2-----2-2-2-2-2-----2-|
--2-----x-------2----2-------|--2--2--x-----2-2-2-2-2-----2-|
-----------------------------|--0--0--------0-0-0---------0-|


  ^     ^  ^ v     ^   v ^ ^     ^  ^  ^  ^ v  ^ v  ^ v ^ v  
  E  E  E  S S S S S S S S E     E  E  E  S E  S E  S S S S  
--0------------------3-3-0----|--3-----3--0-0-----------3---|
--0-----0--0-0-x-0-0-0-0-0-0--|--1--1--1--1-1--1-1--1-1-1-1-|
--0-----0--0-0-x-0-0-0-0-0-0--|--0--0--0--0-0--0-0--0-0-0-0-|
--2-----2--2-2-x-2-2---2-2-2--|--2--2--x--2-2--2-2--2-2-2-2-|
--2--2--2--------2-2---2-2-2--|--0-----x-------0----0-------|
--0--0--0----------0---0------|-----------------------------|


  ^  ^  ^  ^ v  ^ v  ^ v ^ v    ^  ^  ^  ^  ^ v ^   ^  ^   
  E  E  E  S E  S E  S S S S    E  E  E  E  S S S S E  E   
--2-----2----2---------------|--------3--0----------------|
--3--3--3--5-3--3-3--3-3-3-3-|--------0--0--3---0---------|
--2--2--2--2-2--2-2--2-2-2-2-|--0--0--0--0--0-0-0-2----0--|
--4--4--x--4-4--4-4--4-4-4-4-|--2--2--2--2--2-2-2---2--2--|
--2-----x-------2----2-------|--2--2--x-----2-2-2---2--2--|
-----------------------------|--0--0--------0-0-----0-----|


  ^  ^   ^   ^ v  ^    ^ v ^ v    ^  ^  ^  ^ v  ^ v  ^ v ^ v  
  E  S S S S S E  E  S S S S S    E  E  E  S E  S E  S S S S  
-------------------------0-----|--3-----3--0-0-----------3---|
-----------0---0-----0-3-0-----|--1--1--1--1-1--1-1--1-1-1-1-|
--2----0-2-------------0-0-----|--0--0--0--0-0--0-0--0-0-0-0-|
--4--4---4---4-4--2----2-2-2-2-|--2--2--x--2-2--2-2--2-2-2-2-|
--5--5---5---5-5--4----4-4-4-4-|--0-----x-------0----0-------|
-------------------------------|-----------------------------|


  ^  ^  ^  ^ v  ^ v  ^ v ^ v    ^  ^  ^  ^ v ^ v   v  ^ ^   
  E  E  E  S E  S E  S S S S    E  E  E  S S S S S E  S E   
--2-----2----2---------------|--------3--0-----------------|
--3--3--3--5-3--3-3--3-3-3-3-|--3--3--3--3---3---0---------|
--2--2--2--2-2--2-2--2-2-2-2-|--2--2--2--2-2-0-0---2----0--|
--4--4--x--4-4--4-4--4-4-4-4-|--0--0--0--0-0-0-0---0--0-0--|
--2-----x-------2----2-------|---------------2-----2--2----|
-----------------------------|---------------3--------3----|


  ^  ^   ^   ^                    ^  ^   ^  ^  ^  ^  ^  ^ v  
  E  S S S S S S E  S S S S E     E  S S E  E  E  E  E  S S  
-------------------------------|----------------------------|
-----------0---0---------------|--0--3-3-0-----------0------|
--2----0----------------0-2----|--0--0---0--0--0--0--0--0-0-|
--2--2---2---2---2----2--------|--0--0---0--0--0--0--0--0-0-|
--4--4---4---4---4--4---4---4--|----------------------------|
-------------------------------|--3--3---3--3--3--3--3--3-3-|


  ^                             ^  ^ v   v ^  ^ v ^ v  
  H        E  Q    S S    E  E  E  S S S S E  S S S S  
--0--------0-----------|----------------------0-------|
--2-----------0----L---|--0--------------0-0--0-------|
--2------------------2-|-----0---------x-0-0--0-0-0-0-|
--2--------------------|--------2--2-2-x-2-2--2-2-2-2-|
--0--------------------|--------2--2-2-x-2-2--2-2-2-2-|
-----------------------|--0--0--0-------------0-------|


        ^  ^ v   v ^  ^ v ^ v  
  E  E  E  S S S S E  S S S S  
--------0-------------0-------|
--------0--------0-0--0-------|
--------0------x-0-0--0-0-0-0-|
--------2--2-2-x-2-2--2-2-2-2-|
--2--2--2--2-2-x-2-2--2-2-2-2-|
--0--0--0-------------0-------|


                  ^       ^   v       v   ^       ^   v   ^   v    
  T T T T T T T T T T T T T T T T T T T T T T T T T T T T T T T T  
------------------0-------------------------------0---------------|
------------------0-------------------0---0-------0---------------|
------------------0-------------------0---0-------0---0---0---0---|
--0-2-0-2-0-2-0-2-0-2-0-2-0-2-0-2-0-2-0-2-0-2-0-2-0-2-0-2-0-2-0-2-|
------------------2-------2---2-------2---2-------2---2---2---2---|
--0-------0-------0-------------------------------0---------------|


        ^  ^ v   v ^  ^ v ^ v          ^                            
  E  E  E  S S S S E  S S S S    E  E  S T  T S S S S  S E  S S  S  
--------0-------------0-------|--------0----------5-3----2---------|
--------0--------0-0--0-------|--------0------3-------------3------|
--------0------x-0-0--0-0-0-0-|--------0-2s-4---4------------------|
--------2--2-2-x-2-2--2-2-2-2-|--------2-----------------0----0h-2-|
--2--2--2--2-2-x-2-2--2-2-2-2-|--------2------------0h-2----2------|
--0--0--0-------------0-------|--0--0--0----------0----------------|


        ^  v ^ ^ v ^  ^         ^      ^                        
  E  E  E  S S S S E  E  S S    S S E  S S S S S S S S S S S S  
-----------------------------|---------------------------------|
-----0-------------------0---|---------0-----------------------|
--2--------0-0-0-0-0--0----2-|--0------0-2-0-----------------0-|
--------0--0-0-0-0-0--0------|--2-2----2---2-2---0---2---0-2---|
--------2----2---2-2--2------|--4---4--4---4---4---4---4-------|
--3--3--3--------3----3------|---------------------------------|


        ^  v                            ^                            
  E  E  E  S S S S S S S S S S    E  E  S T  T S S S S  S E  S S  S  
--------0----3-3-0---3-0---3-0-|--------0----------5-3----2---------|
--------0----------0-----0-----|--------0------3-------------3------|
--------0--0-------------------|--------0-2s-4---4------------------|
-------------------------------|--------2-----------------0----0h-2-|
--3--3--3--3-------------------|--------2------------0h-2----2------|
-------------------------------|--0--0--0----------0----------------|


        ^  v ^ ^ v ^  ^                                          
  E  E  E  S S S S E  E   S  S     E  S S E  S S E  S  S E  S S  
-------------------------10-10-|--10--8-8-8--7-7-7--5p-0-3--0-3-|
-----0-------------------------|----------0--------------0------|
--2--------0-0-0-0-0--0--------|----------0--------------0------|
--------0--0-0-0-0-0--0--------|--------------------------------|
--------2----2---2-2--2--------|---4--4------4---4--------------|
--3--3--3--------3----3--------|--------------------------------|


        ^  v                                                        
  E  E  E  S S S S S S S S S S    E  E    E  S S S S  S S S S S  S  
-----0--0----3-3-0---3-0---3-0-|-----5br--5--0-3---3--0---0-0----0-|
--------0----------0-----0-----|------------------------3----------|
--------0--0-------------------|-----------------------------------|
-------------------------------|------------------------0-----0h-2-|
--3--3--3--3-------------------|-------------------0h-2-----2------|
-------------------------------|--0--0----0------0-----------------|


          ^               ^                ^             ^       
  S S S S S S S S S S S S S S E     E  S S E  S S E  S S E  S S  
--0-----0-----0-----0-----0------|------------------------------|
----3-0---3-0---3-0---3-0-0-3-0--|-----0-0-0--------------------|
----------0---------------0------|---------0--2-2-2--0-0-0------|
----------0---------------0------|---------2-------------2--4-4-|
----------2----------------------|--4--4------4---4------4------|
--3---3---3-------3---3----------|------------------------------|


        ^  v                         ^  v ^                   
  E  E  E  S E  E  S S S E     E  E  E  S S S S  S E  S S  S  
----------------------------|--------0----0------------------|
----------------------------|--------0--0-0------------------|
----------------------------|--------0--0-0------------------|
--4--2--0----0--------------|--------2--2-2--------0----0h-2-|
--3--3--3--2----2--2-0------|--------2--------0h-2----2------|
-----------------------3-0--|--0--0--0------0----------------|


        ^  v ^ ^ v ^  ^ v ^      ^  ^  ^  v ^                  
  E  E  E  S S S S E  S S S S    E  E  E  S S S S S S S S S S  
------------------------------|--0-----0----0-0-----0-----0---|
--------3--3-3-3-3-3--3-3-3-x-|--0-----0----0---0-----0-----0-|
--------0--0-0-0-0-0--0-0-2-x-|--0--0--0--0-0-----0-----0-----|
--------0--0-0-0-0-0--0-0-0-x-|--2--2--2--2-2-----------------|
--------2----2---2-2--2-2-0---|--4--4--4--4-4-----------------|
--3--3--3--------3----3-------|--x----------------------------|


        ^  v                               ^                              
  E  E  E  S S S S S S S S S S    H        H           W                  
--------0----3-3-0---3-0---3-0-|--L--------3--------|--L----------------||
--------0----------0-----0-----|-----------3--------|--L----------------||
--------0--0-------------------|-----------0--------|--L----------------||
-------------------------------|-----------2--------|--L----------------||
--3--3--3--3-------------------|-----------2--------|--L----------------||
-------------------------------|-----------0--------|--L----------------||

Duration Legend
---------------
W - whole
H - half
Q - quarter
E - 8th
S - 16th
T - 32nd
X - 64th
. - note dotted
|-n-| - n-tuplets

Tablature Legend
----------------
L - tied note
x - dead note
g - grace note
(n) - ghost note
> - accentuded note
NH - natural harmonic
AH - artificial harmonic
TH - tapped harmonic
SH - semi harmonic
PH - pitch harmonic
h - hammer on
p - pull off
b - bend
br - bendRelease
pb - preBend
pbr - preBendRelease
brb - bendReleaseBend
\n/ - tremolo bar dip
\n - tremolo bar dive
-/n - tremolo bar Release up
/n\ - tremolo bar inverted dip
/n - tremolo bar return
-\n - tremolo bar Release down
S - shift slide
s - legato slide
/ - slide into from below or out of upwards
\ - slide into from above or out of downwards
~ - vibrato
W - wide vibrato
tr - trill
TP - tremolo picking
T - tapping
S - slap
P - pop
< - fade in
^ - brush up
v - brush down

Login or Register to remove this ad.

3 comments on The Real Folk Blues

Wow I love this one! If you

Wow I love this one! If you have more cowboy bebop tabs like this, keep them coming!

incredible! thank you

incredible! thank you

Hooooly shit this is

Hooooly shit this is incredible, thank you so much for taking the time to arrange this.