Ads

The Real Folk Blues (Cowboy Bebop) Guitar Tab

Submitted: Dec 03, 2012 by Niall Hamilton (Last updated: Dec 11, 2012)

4
Average: 4 (2 votes)
Download | No audio :(
Game: Cowboy Bebop
Composer(s): Yoko Kanno
Style: Transcription

AutoScroll: Slow | Medium | Fast
----------------------------------------------------------------------------------
The Real Folk Blues – Cowboy Bebop
----------------------------------------------------------------------------------
Tabbed by: Niall Hamilton
E-mail: [email protected]
Tuning: Standard

Cover coming soon:

Comments are helpful!

Chords are here:
    F#m  A  B  D  E  Bm C#m A7 C# Em
e|---2---0--2--2--0--2--4---0--4--0------------------------------------------|
B|---2---2--4--3--0--3--5---2--6--0------------------------------------------|
G|---2---2--4--2--1--4--6---0--6--0------------------------------------------|
D|---4---2--4--0--2--4--6---2--6--2------------------------------------------|
A|---4---0--2--x--2--2--4---0--4--2------------------------------------------|
E|---2---x--x--x--0--x--x---x--x--0------------------------------------------|


Intro - 0.07
F#m A B D x2

Verse - 0.31
F#m A B F#m E

F#m A B F#m

F#m A B F#m E

F#m A B F#m


Pre-Chorus - 1.23
Bm C#m B D C#


Chorus - 1.34
B C# F#m Em

B C# Em A7 B D

C#m B C# F#m


Bridge - 2.04
F#m A B D x2


Verse - 2.28
F#m A B F#m E

F#m A B F#m


Pre-Chorus - 2.53
Bm C#m B D C#


Chorus - 3.05
B C# F#m Em

B C# F#m

B C# F#m Em

B C# Em A7 B D

C#m B C# F#m

Ending Riff - 3.58
F#m A B D x2




************************************

| /   slide up
| \   slide down
| h   hammer-on
| p   pull-off
| ~   vibrato
| +   harmonic
| x   Mute note
| b   Bend
| pb  Pre-bend
| br  Bend release
| pbr Pre-bend release
| brb Bend release bend

************************************
Login or Register to remove this ad.