Ads

Rain (Cowboy Bebop) Guitar Tab

Submitted: May 21, 2016 by JordanVS (Last updated: May 23, 2016)

5
Average: 5 (3 votes)
Download | Listen
Game: Cowboy Bebop
Composer(s): Yoko Kanno
Style: Arrangement, Fingerstyle

AutoScroll: Slow | Medium | Fast
Rain                                                           
Cowboy Bebop
The Seatbelts
Music by Yoko Kanno
Words by Tim Jensen
JordanVS

*Capo on the 1st fret
-Tempo : 72 ~ 4/4


     Q    Q    Q    Q       Q    Q    Q    Q       S E  S S S E  Q    E  S S    E  S S S S E  Q    Q     
E||--0----0----0----0----|--0----0----0----0----|--0------0------0----0------|--0------0------0----0----|
B||--0----0----0----0----|--0----0----0----0----|--0------0------0----0------|--0------0------0----0----|
G||--1----1----1----1----|--1----1----1----1----|--1------1------1----1------|--0------0------0----0----|
D||----------------------|----------------------|--2-2--2---2-2----------2-4-|--0----------0------------|
A||----------------------|----------------------|----------------------------|-----4-2---4--------------|
E||----------------------|----------------------|----------------------------|--------------------------|


  E  S S S E  S E  E  Q       E  S S Q    Q    S Q       S E  S S S E  Q    E  S S    E  S S S S E  S Q.     Q    S  
--3------3------2-----2----|--0------0----0------0----|--0------0------0----0------|--0------0------0--------0------|
--3------3------3-----3----|--2------2----2------2----|--0------0------0----0------|--0------0------0--------0------|
--2------2------2-----2----|--2------2----2------2----|--1------1------1----1------|--0------0------0--------0------|
-----0-0---0--0------------|--------------------------|--2-2--2---2-2----------2-4-|--0----------0------------------|
--0----------------0-------|--------------------------|----------------------------|-----4-2---4------------------0-|
----------------------2----|-----0-0------------------|----------------------------|--------------------------------|


                                          ^                                                         
  S E  S S E  S E  E  Q       E  S S Q    H           Q    Q    Q    E.  S    Q    Q    Q    E.  S  
--3------3------2-----2----|--0------0----0--------|--0----0----0----0-----|--0----0----0----0-----|
--3------3------3-----3----|--2------2----2--------|--1----1----1----1-----|--0----0----0----0-----|
--2------2------2-----2----|--2------2----2--------|--2----2----2----2-----|--1----1----1----1-----|
----0--0---0--0------------|--------------2--------|--2--------------2---2-|--2--------------2---2-|
--0----------------0-------|--------------0--------|-----------------------|-----------------------|
----------------------2----|-----0-0-L-------------|-----------------------|-----------------------|


  Q    Q    Q    E.  S    Q    Q    Q    S S S S    Q    Q    Q    E.  S    Q    Q    Q    E.  S  
--0----0----0----0-----|--0----0----0----0-------|--0----0----0----------|-----------------------|
--1----1----1----1-----|--0----0----0----0-------|--2----2----2----5-----|--4----4----4----4-----|
--2----2----2----2-----|--1----1----1----1-----1-|--1----1----1----6-----|--5----5----5----5-----|
--2--------------2---2-|--2--------------2-2-4---|-----------------6---6-|--6--------------6---6-|
-----------------------|-------------------------|-----------------------|-----------------------|
-----------------------|-------------------------|-----------------------|-----------------------|


  Q    E  S S Q    S S E     Q    E  E  Q    E  E     Q    E  S S S S E  E  E     Q    Q    Q    Q     
--1----1------1----1------|--0----0-----0----0-----|---------------------------|----------------------|
--1----1------1----1------|--1----1-----1----1-----|--4----4------4------4-----|--3----3----3----3----|
--1-------0---------------|--0----0-----0----0-----|--5----5------5------5-----|--5----5----4----4----|
------------3----------0--|------------------------|--5----5------5-3----------|----------------------|
--------------------------|-------3--3-------------|------------3-----6-----6--|--6---------5---------|
--------------------------|------------------------|---------------------------|----------------------|


  S E  S S S E  Q    E  S S    E  S S S S E  S S E  S S E     E  S E  E  S E  E  E.  S    E  S S Q    S S S S E  E   
--0-0--0-0-0-0--0----0--0-2-|------------------------------|-------------0-------------|---------0------------------|
--0------0------0----0------|--3--2-0-L-2-3--L-------------|-----3-3--3----3-----------|---------2------------------|
--1------1------1----1------|--4----0-L---4--L-------------|--2-------2-------2--------|----------------------------|
------------------------2---|--5----------5--L-------------|--4------------------4-----|--L--2-2-L----------0-2-----|
----------------------------|------------------------------|--5----------L-------5-----|--0-----------0-2-4------0--|
--0------------------L------|--0----------L--0-2-3--3-2-0--|-------------------------4-|----------------------------|


                                                                                                      ^         
  S E  S S S E  Q    E  S S    E  S S S S E  S S E  S S E     E  S E  E  S E  E  E.  S    E  S S Q    H         
--0-0--0-0-0-0--0----0--0-2-|------------------------------|-------------0-------------|---------0----0--------|
--0------0------0----0------|--3--2-0-L-2-3--L-------------|-----3-3--3----3-----------|---------2----2--------|
--1------1------1----1------|--4----0-L---4--L-------------|--2-------2-------2--------|--------------2--------|
------------------------2---|--5----------5--L-------------|--4------------------4-----|--4--2-2-L----2--------|
----------------------------|------------------------------|--5----------L-------5-----|--0------L----0--------|
--0------------------L------|--0----------L--0-2-3--3-2-0--|-------------------------4-|-----------------------|


  Q    Q    Q    E.  S    Q    Q    Q    E.  S    Q    Q    Q    E.  S    Q    Q    E.  S S S E   
--0---------L----0---0-|--0---------L----0---0-|--0---------L----0---0-|--0---------L---0-0-2-4--|
--1----1----1----1---1-|--0----0----0----0---0-|--1----1----1----1---1-|--0----0----0-----0------|
--2----2----2----2-----|--1----1----1----1-----|--2----2----2----2-----|--1----1----1-----1------|
-----------------------|-----------------------|-----------------------|----------------------2--|
--3--------------L-----|--2---------L----2-----|--0---------L----0-----|-------------------------|
-----------------------|-----------------------|-----------------------|--4---------4------------|


  Q    Q    Q    E  S S    Q    Q    Q    E.  S    Q.     S S E  E  S S E     Q    S S E  Q    E  E   
--4---------L----4----4-|--4---------L----4---4-|--4------3-1---------L----|--3----L-----------------|
--5----5----5----5----5-|--4----4----4----4-----|--4--------1---------L-3--|--5----L-----------------|
--6----6----6-----------|--5----5----5----------|--------------------------|--5----L-5-5--L----------|
------------------------|-----------------1-----|----------------3---------|-------------------------|
--4---------L-------4---|--3---------L----------|--------------------------|----------------------7--|
------------------------|-----------------------|--1----------L-----1------|--0-----------L----------|


                                                 ^                                      
  Q    E.  S S S Q    E     H        H           W                   W                  
-------------------------|--------------------|--0----------------|--L----------------||
--4----L-----8-6-4----4--|--4--------3--------|--0----------------|--L----------------||
--5----L---5-----5----5--|--5--------4--------|--1----------------|--L----------------||
--5----L-----------------|--5--------5--------|--2----------------|--L----------------||
--6----L-----------------|--------------------|--2----------------|--L----------------||
-------------4-----------|--3--------3--------|--0----------------|--L----------------||




Duration Legend
---------------
W - whole
H - half
Q - quarter
E - 8th
S - 16th
T - 32nd
X - 64th
. - note dotted
|-n-|  - n-tuplets


Tablature Legend
----------------
L - tied note
x - dead note
^ - brush up
v - brush down
Login or Register to remove this ad.