Call Me Call Me (Cowboy Bebop) Guitar Tab

Submitted: Nov 07, 2017 by MissingTime (Last updated: Nov 07, 2017)

4
Average: 4 (1 vote)
Download | Listen
Game: Cowboy Bebop
Composer(s): Yoko Kanno
Style: Arrangement, Fingerstyle

AutoScroll: Slow | Medium | Fast
Cowboy Bebop
Call Me Call Me
Steve Conte
MissingTime
11/7/2017

(/) Slide Up  (\) Slide Down  (h) Hammer On  (p) Pull Off  (b) Bend (r) Release (v) Vibrato

Played with capo on 1st fret.
After the ending, repeat to second staff

E|----------0----------0------------------------------------------------------------------
B|----------0----------0------------------------------------------------------------------
G|--0h2-----2--0h2-----2-----2--2--2--2--2--2h4--0----------2--2--2-----2--2--2-----------
D|----------2----------2-----2----------------------4--2h4--------4--4-----------2--2-----
A|-------0--0-------0--0--0---------------------------------------5-----------------------
E|-----------------------------------------------3----------------------------3--------3--

E|------------------------------------------------------------------
B|------------------------------------------------------------------
G|-----2--2--2--2--2--2h4--0----------2--2--2-----2--2--2-----------
D|-----2----------------------4--2h4--------4--4-----------2--2-----
A|--0---------------------------------------5-----------------------
E|-------------------------3----------------------------3--------3--

E|-----------0-----
B|-----2--------0--
G|--------2--------
D|-----------------
A|-----------------
E|--2--------------

E|----------2--0-----------------
B|-------5--------3--2--0--------
G|-------6-----------------------
D|-------6-----------------4-----
A|--2/4--4-----------------2--2--
E|----------0--------------------

E|--------------0-------------
B|--------2--------0-------5--
G|--4--------2-------------6--
D|--4----------------------6--
A|--2-----------------2/4--4--
E|-----2----------------------

E|--2--0-----------------------------2--0--0--2--0--0----2b0--
B|--------3--2--0--------------------3--2--0--3--2--0----0-0--
G|-----------------------------2--4--4--2--1--4--2--1------1--
D|-----------------4--4--4--4--------4--2--2--4--2--2---------
A|-----------------2-----------2-----2--0--2--2--0--2---------
E|--0--------------------------------------0------------------

E|--2--0--0-------------------------------------------------
B|--3--2--0--0--0--3--0-----------------0--3--0-------------
G|--4--2--1--------------------------1--------------4-------
D|--4--2--2-----------------------------------------4--2h4--
A|--2--0--2--------------5--5--------------------2--2-------
E|-----------------------------3--3--0----------------------

Login or Register to remove this ad.

1 comment on Call Me Call Me

This is pretty good, but it

4

This is pretty good, but it could really use some time markers or at least measure separation. After getting the timings down, I like it.