Login or Register to remove this ad.

Dijurido (Cowboy Bebop: The Movie) Guitar Tab

Submitted: Nov 09, 2017 by tomorning

0
Download | Listen
Game: Cowboy Bebop: The Movie
Composer(s): Yoko Kanno
Style: Arrangement, Fingerstyle

AutoScroll: Slow | Medium | Fast

Nov.9 / 2017

                                               Dijurido

                               ~ from anime "Cowboy Bebop" ~


Allegreto ( Q = 106 )

Standard tuning

     E  E     Q    E     Q    E     Q.        Q    E     E  E  E     Q.      
E||-----7--|--8----5--|--5-------|--5------|----------|--0--1--0--|---------|
B||--------|--6-------|--5----8--|--3------|--1----3--|-----------|--1------|
G||--------|--7-------|--5-------|---------|--0-------|-----------|---------|
D||--------|----------|----------|--3------|----------|-----------|--3------|
A||--------|----------|----------|---------|----------|-----------|--1------|
E||--------|----------|----------|---------|----------|-----------|---------|


  Q    E     E  Q        E   E  E     Q.        Q.        Q    E     Q    E   
----------|--0--3----|--10~--------|--5------|---------|-------7--|--8----5--|
-------3--|--0-------|-------------|--3------|---------|----------|--6-------|
----------|----------|---0---------|---------|---------|----------|----------|
----------|--2-------|-------0-----|--4------|---------|----------|--0-------|
----------|--0-------|----------0--|---------|---------|----------|----------|
----------|----------|-------------|---------|---------|----------|----------|


  Q    E     Q    E     Q    E     E  E  E     Q.        Q    E     E  E  E   
--5-------|--5-------|----------|--0--1--0--|---------|----------|--0--3-----|
--5----8--|--3-------|--1----3--|-----------|--1------|-------3--|--------0--|
----------|-------5--|--2-------|-----------|---------|----------|-----------|
----------|--3-------|--0-------|-----------|--3------|----------|-----2-----|
--7-------|----------|----------|-----------|--1------|----------|--0--------|
----------|----------|--3-------|-----------|---------|----------|-----------|


   E   E  E     Q.        Q.        Q.        E  E  E     E  E  E     E  E  E   
--10~--------|--5------|---------|---------|-----------|-----------|-----------|
-------------|--3------|---------|---------|-----------|--------1--|--0--------|
---0---------|---------|---------|---------|--2--0--2--|-----0-----|-----2--0--|
-------0-----|--4------|---------|---------|-----------|--2--------|-----------|
----------0--|---------|---------|---------|--0--------|-----2-----|--3--------|
-------------|---------|---------|---------|-----------|-----------|-----------|


  E  Q       E  E  E     E  E  E     E  E  E     E   S S E     E  Q     
----------|-----------|-----------|-----------|-------------|----------|
----------|-----------|-----------|-----------|-------------|----------|
----------|-----------|-----------|--------0--|--2p--0------|----------|
--2--0----|-----0-----|--0--------|--0--2-----|--------2----|----------|
----------|--------3--|-----0--3--|-----------|-------------|----------|
--3--2----|-----------|--1--------|--3--------|--4----------|----------|


  E  E  E     E  E  E     E  E  E     E  Q       E  E  E     E  E  E   
-----------|-----------|-----------|----------|-----------|-----------|
-----------|--------1--|--0--------|----------|-----------|-----------|
--2--0--2--|-----0-----|-----2--0--|----------|-----------|-----------|
-----------|--2--------|-----------|--2--0----|-----0-----|--0--------|
--0--------|-----2-----|--3--------|----------|--------3--|-----0--3--|
-----------|-----------|-----------|--3--2----|-----------|--1--------|


  E  E  E     Q.        Q.          E  E   E  E  E     E  E   E  E  E   
-----------|---------|---------||-------------7--8--|------------7--8--|
-----------|---------|---------||---6--8--10--------|--6--8--10--------|
--------0--|--2------|---------||*------------0-----|------------0-----|
--0--2-----|---------|---------||*--0------------7--|--0------------7--|
-----------|---------|---------||------7---8--------|-----7---8--------|
--3--------|---------|---------||-------------------|------------------|


  E  E   E  E  E     E  E  E  E   E   4x  E     Q    E     Q    E     Q.      
------------7--8--|--0----------------||--7--|--8----5--|--5-------|--5------|
--6--8--10--------|-----1--3--8--10---||-----|--6-------|--5----8--|--3------|
------------0-----|------------------*||-----|--7-------|--5-------|---------|
--0------------7--|------------------*||-----|----------|----------|--3------|
-----7---8--------|--3--------7-------||-----|----------|----------|---------|
------------------|---------------8---||-----|----------|----------|---------|


  Q    E     E  E  E     Q.        Q    E     E  Q        E   E  E     Q.      
----------|--0--1--0--|---------|----------|--0--3----|--10~--------|--5------|
--1----3--|-----------|--1------|-------3--|--0-------|-------------|--3------|
--0-------|-----------|---------|----------|----------|---0---------|---------|
----------|-----------|--3------|----------|--2-------|-------0-----|--4------|
----------|-----------|--1------|----------|--0-------|----------0--|---------|
----------|-----------|---------|----------|----------|-------------|---------|


  Q.        Q    E     E  E  E     Q    E     Q    E     Q    E     E  E  E   
---------|-------7--|--8-----5--|--5-------|--5-------|----------|--0--1--0--|
---------|----------|-----------|--5----8--|--3-------|--1----3--|-----------|
---------|----------|-----7-----|----------|-------5--|--2-------|-----------|
---------|----------|--0--------|----------|--3-------|--0-------|-----------|
---------|----------|-----------|--7-------|----------|----------|-----------|
---------|----------|-----------|----------|----------|--3-------|-----------|


  Q.        Q    E     E  E  E      E   E  E     Q.        Q.        Q.      
---------|----------|--0--3-----|--10~--------|--5------|---------|---------|
--1------|-------3--|--------0--|-------------|--3------|---------|---------|
---------|----------|-----------|---0---------|---------|---------|---------|
--3------|----------|-----2-----|-------0-----|--4------|---------|---------|
--1------|----------|--0--------|----------0--|---------|---------|---------|
---------|----------|-----------|-------------|---------|---------|---------|


    E  E  E     E  E  E     E  E  E     E  Q       E  E  E     E  E  E   
|------------|-----------|-----------|----------|-----------|-----------|
|------------|--------1--|--0--------|----------|-----------|-----------|
|*--2--0--2--|-----0-----|-----2--0--|----------|-----------|-----------|
|*-----------|--2--------|-----------|--2--0----|-----0-----|--0--------|
|---0--------|-----2-----|--3--------|----------|--------3--|-----0--3--|
|------------|-----------|-----------|--3--2----|-----------|--1--------|


  E  E  E     E   S S E     E  Q       E  E  E     E  E  E     E  E  E   
-----------|-------------|----------|-----------|-----------|-----------|
-----------|-------------|----------|-----------|--------1--|--0--------|
--------0--|--2p--0------|----------|--2--0--2--|-----0-----|-----2--0--|
--0--2-----|--------2----|----------|-----------|--2--------|-----------|
-----------|-------------|----------|--0--------|-----2-----|--3--------|
--3--------|--4----------|----------|-----------|-----------|-----------|


          1.__________

  E  Q       E  E  E     E  E  E     E  E  E     Q.        Q.        
----------|-----------|-----------|-----------|---------|----------||
----------|-----------|-----------|-----------|---------|----------||
----------|-----------|-----------|--------0--|--2------|---------*||
--2--0----|-----0-----|--0--------|--0--2-----|---------|---------*||
----------|--------3--|-----0--3--|-----------|---------|----------||
--3--2----|-----------|--1--------|--3--------|---------|----------||


2.__________

  E  E  E     E  E  E     E  E  E     Q.        Q.       
-----------|-----------|-----------|---------|---------||
-----------|-----------|-----------|---------|---------||
-----------|-----------|--------0--|--2------|---------||
-----0-----|--0--------|--0--2-----|---------|---------||
--------3--|-----0--3--|-----------|---------|---------||
-----------|--1--------|--3--------|---------|---------||    fine....

Login or Register to remove this ad.