5-Minute Score Attack (Coryoon, Child of Dragon) Bass Tab

Submitted: May 18, 2012 by auriplane

0
Download | Listen
Game: Coryoon, Child of Dragon
Composer(s): Hisashi Matsushita, Daisuke Morishima
Style: Transcription

AutoScroll: Slow | Medium | Fast
                       Coryoon, Child of Dragon - 5-Minute Score Attack  BASS TAB
                           Composed by Hisashi Matsushita, Daisuke Morishima

                                Tabbed by auriplane ([email protected])


Four-string bass, standard tuning.

        Part A

G |------------------------|------------------------|--------5-----------5---|--------5-----------5---|
D |--------7-----------7---|--------7-----------7---|------------------------|------------------------| x4
A |------------------------|------------------------|3-3-3-3---3-3-3-3-3---3-|3-3-3-3---3-3-3-3-3---3-|
E |5-5-5-5---5-5-5-5-5---5-|5-5-5-5---5-5-5-5-5---5-|------------------------|------------------------|

        Part B

G |------------------------|------------------------|------------------------|------------------------|
D |3---3-3---3-3---3-3---3-|3---3-3---3-3---3-3---3-|2---2-2---2-2---2-2---2-|2---2-2---2-2---2-2---2-|
A |------------------------|------------------------|------------------------|------------------------|
E |------------------------|------------------------|------------------------|------------------------|

G |------------------------|------------------------|------------------------|------------------------|
D |------------------------|------------------------|------------------------|------------------------|
A |5---5-5---5-5---5-5---5-|5---5-5---5-5---5-5---5-|------------------------|------------2---2-5---5-|
E |------------------------|------------------------|3---3-3---3-3---3-3---3-|3---3-5---5-------------|

G |------------------------|------------------------|------------------------|------------------------|
D |3---3-3---3-3---3-3---3-|3---3-3---3-3---3-3---3-|2---2-2---2-2---2-2---2-|2---2-2---2-2---2-2---2-|
A |------------------------|------------------------|------------------------|------------------------|
E |------------------------|------------------------|------------------------|------------------------|

G |------------------------|------------------------|------------------------|------------------------|
D |------------------------|------------------------|------------------------|5-5---5-5---5-5---5---5-|
A |5---5-5---5-5---5-5---5-|5---5-5---5-5---5-5---5-|------------------------|------------------------|
E |------------------------|------------------------|3---3-3---3-3---3-3---3-|----3-----3-----3---3---|

        Repeat back to Part A.

Login or Register to remove this ad.