Kind Words (Corpse Party: Book of Shadows) Guitar Tab

Submitted: Oct 17, 2014 by scarecrowlol

5
Average: 5 (3 votes)
Download | Listen
Game: Corpse Party: Book of Shadows
Composer(s): Unknown
Style: Arrangement, Fingerstyle

AutoScroll: Slow | Medium | Fast
Title: Kind Words
SubTitle: Corpse Party Book Of Shadows
Artist: Mao Hamamoto, Tomoyuki Hamada
Tabber: Mitch Jackson
Tempo = 80
T/S = 4/4


                                                        |-3-| 
      E  E  E  E  Q.       E       E  E  E  E  Q.       S S S      E  E  E  E  H                E  E  E  E  H
E ||--0-----------0-------------|--0-----------0--------0-------|----------------------------|----------------------------|
B ||--------0--------------6----|--------0----------------1p0---|--------------5-------------|--------------5-------------|
F ||o----------7----------------|-----------7-------------------|--4--------4----------------|-----------4----------------|
D ||o---------------------------|-------------------------------|--------5-------------------|--------5-------------------|
A ||-----7----------------------|-----7-------------------------|-----3----------------------|-----3----------------------|
D ||--7-------------------------|--7----------------------------|--3-------------------------|--3-------------------------|

                                                        |-3-|                     
      E  E  E  E  Q.       E       E  E  E  E  Q.       S S S      E  E  E  E  Q.       E       E  E  E  E  H
   |--0-----------0-------------|--0-----------0--------0-------|----------------------------|----------------------------|
   |--------0--------------6----|--------0----------------1p0---|--------------5--------6----|--------------5-------------|
   |-----------7----------------|-----------7-------------------|--4--------4----------------|-----------4----------------|
   |----------------------------|-------------------------------|--------5-------------------|--------5-------------------|
   |-----7----------------------|-----7-------------------------|-----3----------------------|-----3----------------------|
   |--7-------------------------|--7----------------------------|--3-------------------------|--3-------------------------|

   |------FIRST ENDING--------->                                                          |-RALL--------------------->
      E  E  E  E  Q.       E       E  E  E  E  H                E  E  E  E  Q.       E       E  E  E  E  E  E  E  E
   |----------------------------|----------------------------|----------------------------|--------------------5--7---||
   |--------------1--------3----|--0-----------0-------------|--5-----------5--------6----|--5--------------5---------||
   |--0--------0----------------|-----------2----------------|-----------4----------------|-----------6--7-----------o||
   |--------2-------------------|--------4-------------------|--------5-------------------|--------7-----------------o||
   |-----0----------------------|-----2----------------------|-----3----------------------|-----5---------------------||
   |--0-------------------------|--2-------------------------|--3-------------------------|--5------------------------||

   |------SECOND ENDING-------->                                ^                         |--RALL--------------------->
      E  E  E  E  Q.       E       E  E  E  E  H                E  E  E  E  Q.       E       E  E  E  E  E  E  E  E
   |--1-------------------------|----------------------------|--------------0-------------|--------------------5--7----|
   |--1-----------1--------3----|--0-----------0-------------|--5-----------0--------6----|--5--------------5----------|
   |-----------0----------------|--2--------2----------------|--4--------4-----------7----|--6--------6--7-------------| DA CAPO
   |--------2-------------------|--------4-------------------|--------5-------------------|--------7-------------------|
   |-----0----------------------|-----2----------------------|-----3----------------------|-----5----------------------|
   |--0-------------------------|--2-------------------------|--3-------------------------|--5-------------------------|

      
      W
   |--L-------------------------||
   |--L-------------------------||
   |--L-------------------------||
   |--L-------------------------||
   |--L-------------------------||
   |--L-------------------------||

Login or Register to remove this ad.