Waterfall (Contra) Guitar Tab

Submitted: Nov 23, 2014 by ltm_1988

0
Download | Listen
Game: Contra
Composer(s): Club Kukeiha
Style: Arrangement, Fingerstyle

AutoScroll: Slow | Medium | Fast
Waterfall
Contra
Kazuki Muraoka
ltm_1988
11/22/2014

    S S S E   S S S S S S E   S S S   S S S E   S S S S S S E   S S S
E||-3-0-2-3---3-0-2-3-0-2-3---3-0-2-|-3-0-2-3---3-0-2-3-0-2-3---3-0-2-|
B||---------------------------------|-3-------------------------------|
G||-2-------------------------------|---------------------------------|
D||---------------------------------|---------------------------------|
A||-0-------------------------------|-0-------------------------------|
E||---------------------------------|---------------------------------|

    S S S E   S S S S S S E   S S S   S S S E   S S S S S S E   S S S
E||-3-0-2-3---3-0-2-3-0-2-3---3-0-2-|-3-0-2-3---3-0-2-3-0-2-3---3-0-2-|
B||-5-------------------------------|---------------------------------|
G||---------------------------------|---------------------------------|
D||---------------------------------|---------------------------------|
A||-0-------------------------------|-0-------------------------------|
E||---------------------------------|---------------------------------|

    S S S E   S S S S S S E   S S S   S S S E   S S S S S S E   S S S
E||-7-------------------------------|---------------------------------|
B||-8---7-8---8---7-8---7-8---8---7-|-8---7-8---8---7-8---7-8---8---7-|
G||---9---------9-----9---------9---|---9---------9-----9---------9---|
D||---------------------------------|---------------------------------|
A||-0-------------------------------|-0-------------------------------|
E||---------------------------------|---------------------------------|

    E   S S S S E   S S S E   S S S   E   S S S S S S S S E.    E   S
E||-----------------------------3-2-|-------------2-0-----------------|
B||-----0-1---3-----0---------------|---------------------------------|
G||*2-------------------0-----2-----|-----------2---------------------|
D||*--------0-0-----------2---------|---------0-0---------------------|
A||-0---3-0-----0---3-3-0-----------|-0---3-0-----0---3-3-0-----------|
E||---------------------------3---4-|---------------------------3---4-|

    E   S S S S E   S S S E   S S S   E   S S S S S S S S E.    E   S
E||-----------------------------3-2-|-------------2-0-----------------|
B||-----0-1---3-----0---------------|---------------------------------|
G||-2-------------------0-----2-----|-----------2---------------------|
D||---------0-0-----------2---------|---------0-0---------------------|
A||-0---3-0-----0---3-3-0-----------|-0---3-0-----0---3-3-0-----------|
E||---------------------------3---4-|---------------------------3---4-|

    E   S S S S S S S S S S S E   S   E   S S S S S S S S S S S E   S
E||-----------------5-----5-7-------|-----0---5-----5-7---5-7-8-------|
B||-6-----6-8---6-8-----8-----------|-8-----8-----8-------------------|
G||-----7---------------------------|-0-----0-------------------------|
D||---------0-0---------------------|---------0-0---------------------|
A||-8---0-8-----0-------0-----8---9-|---------------------0-----8---9-|
E||-----------------8-8-------------|-----7-------7---8-8-------------|

    E   S S S S S S S S S S S S E     E   S S S S S S S S S S S S E
E||-----5-----3-----2-----0-----3---|-----5-----3-----2-----0-----3---|
B||---------------------------------|---------------------------------|
G||-----2-2-2-0-2-2---2-2---2-2-0---|-----2-2-2-0-2-2---2-2---2-2-0---|
D||-----------------4-----2---------|-----------------4-----2---------|
A||-------0-0---0-0---0-0---0-0-----|-------0-0---0-0---0-0---0-0-----|
E||-3-------------------------------|-3-------------------------------|

    E   S S S S E   S S S E   S S S   E   S S S S S S S S E.    E   S
E||-----------------------------3-2-|-------------2-0-----------------|
B||-----0-1---3-----0---------------|---------------------------------|
G||-2-------------------0-----2-----|-----------2---------------------|
D||---------0-0-----------2---------|---------0-0---------------------|
A||-0---3-0-----0---3-3-0-----------|-0---3-0-----0---3-3-0-----------|
E||---------------------------3---4-|---------------------------3---4-|

    E   S S S S E   S S S E   S S S   E   S S S S S S S S E.    E   S
E||-----------------------------3-2-|-------------2-0-----------------|
B||-----0-1---3-----0---------------|---------------------------------|
G||-2-------------------0-----2-----|-----------2---------------------|
D||---------0-0-----------2---------|---------0-0---------------------|
A||-0---3-0-----0---3-3-0-----------|-0---3-0-----0---3-3-0-----------|
E||---------------------------3---4-|---------------------------3---4-|

    E   S S S S S S S S S S S E   S   E   S S S S S S S S S S S E   S
E||-----------------5-----5-7-------|-----0---5-----5-7---5-7-8-------|
B||-6-----6-8---6-8-----8-----------|-8-----8-----8-------------------|
G||-----7---------------------------|-0-----0-------------------------|
D||---------0-0---------------------|---------0-0---------------------|
A||-8---0-8-----0-------0-----8---9-|---------------------0-----8---9-|
E||-----------------8-8-------------|-----7-------7---8-8-------------|

    S S S S S S S S S S S Q       S   H               S S E   E   E
E||-5-3-0---0-----------------------|---------------------------------|
B||-------3---3-1---1---------------|---------------------------------|
G||-2-0-----------2---2-0-2---------|---------------------------------|
D||-----2-0-2-0---------------------|---------------------------------|
A||-------------3-0-3-0---0---------|-----------------0-0-0---2---2---|
E||---------------------3-----------|-------------------------4---4---|

    E   S S S S S E.    E   E   E     E   S S S S S E.    E   S S E
E||---------------------------------|---------------------------------|
B||-------------0-1-----0---1---3---|-------------0-1-----0-----------|
G||-2---2-2-2-2---------------------|-2---2-2-2-2-------------2-0-----|
D||---------------------------------|---------------------------------|
A||-0---0---------------------------|-0---0---------------------------|
E||---------------------------------|-------------------------3---3---|

    E   S S S S S E.    E   E   E     S S S E   S S E   S S S S S E   x3 W
E||---------------------------------|---------------------------------||-0-
B||-------------0-1-----0---1---3---|---------------------0-----0-1---||-1-
G||-2---2-2-2-2---------------------|-----0-----0-2-0---2---2--------*||-2-
D||---------------------------------|-2-4---4-----------0-2-0-0-2-4--*||-2-
A||-0---0---------------------------|-0-0-0-0-------3-----------------||-0-
E||---------------------------------|---------------------------------||---
Login or Register to remove this ad.