Snow Field (Contra) Guitar Tab

Submitted: Aug 18, 2014 by ltm_1988

0
Download | Listen
Game: Contra
Composer(s): Club Kukeiha
Style: Arrangement, Fingerstyle

AutoScroll: Slow | Medium | Fast
Snow Field
Contra
Kazuki Muraoka
ltm_1988
8/16/2014

    E   E   E   E   E   E   E   E     E   E   E   E   E   E   E   E
E||---------------------------------|---------------------------------|
B||---------------------------------|---------------------------------|
G||---------------------------------|---------------------------------|
D||-2---2---2---2---2---2---2---2---|-2---2---2---2---2---2---2---2---|
A||---------------------------------|---------------------------------|
E||-0---0---0---0---0---0---0---0---|-0---0---0---0---0---0---0---0---|

    S E.    E   E   E   E   E   E     S E.    E   E   E   E   E   E
E||---------------------------------|---------------------------------|
B||-----------------0-------0---1---|-----------------0-------0---1---|
G||*2-1~------------1---2---1---2---|-2-1~------------1---2---1---2---|
D||*3-2~----2---2---2---2---2---2---|-3-2~----2---2---2---2---2---2---|
A||---------------------------------|---------------------------------|
E||---------------------------------|---------------------------------|

    S E.    E   E   E   E   E   E     S E.    E   E   E   E   E   E
E||---------------------------------|---------------------------------|
B||-----------------0-------0---1---|-----------------0-------0---1---|
G||-2-1~------------1---2---1---2---|-2-1~------------1---2---1---2---|
D||-3-2~----2---2---2---2---2---2---|-3-2~----2---2---2---2---2---2---|
A||---------------------------------|---------------------------------|
E||---------------------------------|---------------------------------|

    S E.    E   E   E   E   E   E     S E.    E   E   E   E   E   E
E||---------------------------------|---------------------------------|
B||---0-------------3---1---3---4---|---0-------------3---1---3---4---|
G||-5-------0---0---4---0---4---5---|-5-------0---0---4---0---4---5---|
D||-6-5~------------5-------5---5---|-6-5~------------5-------5---5---|
A||---------------------------------|---------------------------------|
E||---------------------------------|---------------------------------|

    S E.    E   E   E   E   E   E     S E.    E   E   E   E   E   E
E||---------------------------------|---------------------------------|
B||---0-------------3---1---3---4---|---0-------------3---1---3---4---|
G||-5-------0---0---4---0---4---5---|-5-------0---0---4---0---4---5---|
D||-6-5~------------5-------5---5---|-6-5~------------5-------5---5---|
A||---------------------------------|---------------------------------|
E||---------------------------------|---------------------------------|

    S E.    E   E   E   E   E   E     S E.    E   E   E   E   E   E
E||---------------------------------|-1-------------------------------|
B||-4-3~------------------------1---|-2-5~------------1---1---1---1---|
G||-4-3~----3---3---3---2---3---3---|---5~----5---5---3---2---3-------|
D||-----------------0---0---0---0---|-----------------2---2---2---2---|
A||---------------------1-----------|---------------------------------|
E||---------------------------------|---------------------------------|

    S E.    E   E   E   E   E   E     S E.    E   E   E   E   E   E
E||---------------------------------|-1-------------------------------|
B||-4-3~------------------------1---|-2-5~------------1---1---1---1---|
G||-4-3~----3---3---3---2---3---3---|---5~----5---5---3---2---3-------|
D||-----------------0---0---0---0---|-----------------2---2---2---2---|
A||---------------------1-----------|---------------------------------|
E||---------------------------------|---------------------------------|

    E   E   E   S S S S E   E   E     E   E   E   S S S S E   E   E
E||-----5---6---5-3---1-3-----------|-----5---6---5-8---6-8-----------|
B||-3---3---4---3-1-----1---1---3---|-3---3---4---3-----4-8---1---3---|
G||-2-----------------3-----0---2---|-2-------------5---------0---2---|
D||-0---0---0---0---0---0---0---0---|-0---0---0---0---0---0---0---0---|
A||---------------------------------|---------------------------------|
E||---------------------------------|---------------------------------|

    E   E   E   E   E   E   E   E     E   E   E   E   E   E   E   E
E||-----5---10--5-------5---10--5---|-1---5---10--8---1---5---10--8---|
B||-3~--------------3~--------------|-3---6---10--10--3---6---10--10--|
G||-----2-------2-------2-------2---|---------------------------------|
D||-0-------0-------0-------0-------|-0---7---0---7---0---7---0---7---|
A||---------------------------------|---------------------------------|
E||---------------------------------|---------------------------------|

    E   E   E   S S S S E   E   E     E   E   E   S S S S E   E   E
E||-----5---6---5-3---1-3-----------|-----5---6---5-8---6-8-----------|
B||-3---3---4---3-1-----1---1---3---|-3---3---4---3-----4-8---1---3---|
G||-2-----------------3-----0---2---|-2-------------5---------0---2---|
D||-0---0---0---0---0---0---0---0---|-0---0---0---0---0---0---0---0---|
A||---------------------------------|---------------------------------|
E||---------------------------------|---------------------------------|

    E   E   E   E   E   E   E   E     E   E   E   E   E   E   E   E   x3 W
E||-----5---10--5-------5---10--5---|-1---5---10--8---1---5---10--8---||-10-
B||-3~--------------3~--------------|-3---6---10--10--3---6---10--10--||-10-
G||-----2-------2-------2-------2---|---------------------------------||-10-
D||-0-------0-------0-------0-------|-0---7---0---7---0---7---0---7---||-12-
A||---------------------------------|---------------------------------||-12-
E||---------------------------------|---------------------------------||-10-
Login or Register to remove this ad.