Energy Zone (Contra) Guitar Tab

Submitted: Aug 18, 2014 by ltm_1988

0
Download | Listen
Game: Contra
Composer(s): Club Kukeiha
Style: Arrangement, Fingerstyle

AutoScroll: Slow | Medium | Fast
Energy Zone
Contra
Kazuki Muraoka
ltm_1988
8/14/2014

                      |-3-|
    H.                E E E
E||-------------------------|
B||-------------------------|
G||-------------------------|
D||-----------------------1-|
A||-------------------3-4-1-|
E||-------------------3-4---|

    |-3-| |-3-| |-3-| |-3-|   |-3-| |-3-| |-3-| |-3-|   |-3-| |-3-| |-3-| |-3-|   |-3-| |-3-| |-3-| |-3-|
    Q   E Q   E Q   E E E E   Q   E Q   E Q   E E E E   Q   E Q   E Q   E Q   E   Q   E Q   E Q   E Q   E
E||-------------------------|-------------------------|-------------------------|-------------------------|
B||-------------------------|-1-----------------------|-------------------------|-------------------------|
G||*--------------------0-1-|-1---3~------------3-1-0-|-1---0-------------------|-1---0-------------------|
D||*3---3-3---3-3---3-3-0-1-|-3---3-3---3-3---3-3-1-3-|-1---3-3---3-3---3-3---3-|-1---3-3---3-3---3-3---3-|
A||-3~----------------3-----|-----------------------4-|-----4~------------------|-----4-------6---3-------|
E||-------------------------|-------------------------|-------------------------|-------------6---3-------|

    |-3-| |-3-| |-3-| |-3-|   |-3-| |-3-| |-3-| |-3-|   |-3-| |-3-| |-3-| |-3-|   |-3-| |-3-| |-3-| |-3-|
    Q   E Q   E Q   E E E E   Q   E Q   E Q   E E E E   Q   E Q   E Q   E Q   E   Q   E Q   E Q   E Q   E
E||-------------------------|-------------------------|-------------------------|-------------------------|
B||-------------------------|-1-----------------------|-------------------------|-------------------------|
G||---------------------0-1-|-1---3~------------3-1-0-|-1---0-------1---0-------|-1---0-------------------|
D||-3---3-3---3-3---3-3-0-1-|-3---3-3---3-3---3-3-1-3-|-1---3-3---3-3---3-3---3-|-1---3-3---3-3---3-3---3-|
A||-3~----------------3-----|-----------------------4-|-----4~------------------|-----4-------6---3-------|
E||-------------------------|-------------------------|-------------------------|-------------6---3-------|

    |-3-| |-3-| |-3-| |-3-|   |-3-| |-3-| |-3-| |-3-|   |-3-| |-3-| |-3-| |-3-|   |-3-| |-3-| |-3-| |-3-|
    Q   E Q.    Q.    Q.      Q   E Q.    Q.    Q.      Q   E Q.    Q.    Q.      Q   E Q.    Q.    Q.
E||-1---1-------------------|-1---1-------------------|-1---1-------------------|-1---1-------------------|
B||-1---1-------------------|-1---1-------------------|-1---1-------------------|-1---1-------------------|
G||-------------------------|-------------------------|-------------------------|-------------------------|
D||-3-----1-----4-----------|-3-----1-----4-----------|-3-----1-----4-----------|-3-----1-----4-----------|
A||-------------------3-----|-------------------3-----|-------------------3-----|-------------------3-----|
E||-------------------------|-------------------------|-------------------------|-------------------------|

    |-3-| |-3-| |-3-| |-3-|   |-3-| |-3-| |-3-| |-3-|   |-3-| |-3-| |-3-| |-3-|   |-3-| |-3-| |-3-| |-3-|
    Q   E Q.    Q.    Q.      Q   E Q.    Q.    Q.      Q   E Q.    Q.    Q.      Q   E Q.    E E E E E E
E||-------------------------|-------------------------|-------------------------|-------------------------|
B||-1---1-------------------|-1---1-------------------|-1---1-------------------|-1---1-------2-2-2-4-4-4-|
G||-------------------------|-------------------------|-------------------------|-0---0-------1-1-1-3-3-3-|
D||-------------------------|-------------------------|-------------------------|-------------------1-1-1-|
A||-3-----1-----4-----------|-3-----1-----4-----------|-3-----1-----4-----------|-3-----1-----4-4-4-------|
E||-3---3-------------3-----|-3---3-------------3-----|-3---3-------------3-----|-------------------------|

    |-3-| |-3-| |-3-| |-3-|   |-3-| |-3-| |-3-| |-3-|
    E E E E E E E E E E E E   E E E E E E E E E E E E x3 W
E||-138---8-----4-----------|-1-----------------------||-1-
B||-----9---9-6---6---6-----|---1---1-----------------||-1-
G||-----------------5---5---|-----1---1---1----------*||-2-
D||-----------------------6-|-1---------3---3-------1*||-3-
A||-------------------------|-----------------3-3-4-1-||-3-
E||-13----------------------|-------------------3-4---||-1-

Login or Register to remove this ad.