Ads

Ojiisan (Contact) Guitar Tab

Submitted: Mar 10, 2012 by Lemoncobbler

5
Average: 5 (1 vote)
Download | Listen
Game: Contact
Composer(s): Masafumi Takada, Jun Fukuda
Style: Fingerstyle, Transcription

AutoScroll: Slow | Medium | Fast
Ojiisan                                      
Contact
Composed by Masafumi Takada and Jun Fukuda
Tabbed by Lemoncobbler


                                    Ojiisan                                     


Track 1
          ^                        ^                        ^                 
     Q    E  Q    E  E  E     Q    E  E  Q    E  E     Q    E  Q    E  E  E   
E||------------------------|------------------------|------------------------|
B||-------3--1-------------|-------3--1--L----------|-------3--1-------------|
G||-------2-------------0--|-------2----------------|-------2-------------0--|
D||---------------2--------|------------------------|---------------2--------|
A||--0---------------L-----|--0---------------L-----|--0---------------L-----|
D||------------------------|------------------------|------------------------|


       ^                       ^                                         
  Q    E  E  Q    Q       Q    E  E  Q    E  E     Q    E  E  Q.     E   
-----------------------|-------0----------------|-----------------------|
-------3--1--0---------|-------------3-------3--|--L----1------------1--|
-------2-----0----0----|-------2--2-------0-----|----------3------------|
-------------2---------|------------------------|-------------3---------|
--0--------------------|--0----------2----------|--1----------0---------|
-------------2---------|------------------------|-----------------------|


                                                  ^    ^                 
  E.  E.  E  Q    Q       E.  E.  E  Q    Q       Q    E  E  Q    E  E   
-----------------------|-----------------------|-------0----------------|
--L--------------------|------0------3---------|--1----------3-------3--|
------0-----------5----|--L-------2------------|--0----2--2--4----0-----|
----------3------------|--4----------3----0----|------------------------|
-------------7---------|--0----------2---------|--0----------2----------|
--6----------5---------|-----------------------|------------------------|


                                          ^                          ^     
  Q    E  E  Q.     E     E.  E.  E  E  S E.  E     E  E  E  E  Q    Q     
-----------------------|-------------------------|------------------------|
--L----1---------------|-------------------------|------------------------|
----------3---------0--|--L----------------------|-----------2--0----1----|
-------------3---------|------------------2---1--|--0-----0----------0----|
--1----------0---------|------3---1-----L-3------|-----4--------2---------|
-----------------------|--6----------5-----------|--4---------------------|


                                                      ^                     
  E.  E.  E  E.  E.  E     E  E  E  E  E  E  E  E     E.  E.  E  Q    Q     
------------------------|--------------------------|-----------------------|
-------------0----------|--1--0--------------------|-----------------------|
--2---------------------|--------2--0-----------0--|----------2--0---------|
------2---3------0---2--|--L-----------------0-----|--3---0-----------2----|
--3---------------------|--0--------------3--------|--0--------------------|
--3----------5----------|--------------5-----------|--0----------2---------|


  ^                                                ^                      
  E.  E.  E  Q    Q       E.  E.  E  E.  E.  E     E  E  E  E  Q    Q     
-----------------------|--0---------------------|------------------------|
------0---1--3---------|----------0--3-------0--|--1--0------------------|
--2----------2----1----|--2---2------2---2------|--2-----2---------------|
--3--------------------|------------------------|--2--------2------------|
--0----------2---------|------------------------|--0----------------2----|
------------------2----|--3----------5----------|--------------5---------|


  ^                         ^                        ^         ^          
  Q.     S S E  E  E  E     Q.     E  E  E  E  E     Q    Q    Q    Q     
-------------------------|------------------------|----------------------|
-------------------------|------------------------|----------------------|
--2-------------------2--|--2------------------0--|------------0---------|
--0------0---0-----0-----|--0------0--0-----0-----|--3----0---------2----|
----------------3--------|---------------3--------|--0---------2---------|
--4----------------------|--3---------------------|--0---------2---------|


  ^                     
  E.  E.  E  H          
----------------------||
--3---1------1--------||
--4-------4-----------||
-------------2--------||
--0-------------------||
----------------------||




Duration Legend
---------------
W - whole
H - half
Q - quarter
E - 8th
S - 16th
T - 32nd
X - 64th
. - note dotted
|-n-|  - n-tuplets


Tablature Legend
----------------
L - tied note
x - dead note
g - grace note
(n) - ghost note
> - accentuded note
NH - natural harmonic
AH - artificial harmonic
TH - tapped harmonic
SH - semi harmonic
PH - pitch harmonic
h - hammer on
p - pull off
b - bend
br - bendRelease
pb - preBend
pbr - preBendRelease
brb - bendReleaseBend
\n/ - tremolo bar dip
\n - tremolo bar dive
-/n - tremolo bar Release up
/n\ - tremolo bar inverted dip
/n - tremolo bar return
-\n - tremolo bar Release down
S - shift slide
s - legato slide
/ -  slide into from below or out of upwards
\ -  slide into from above or out of downwards
~ - vibrato
W - wide vibrato
tr - trill
TP - tremolo picking
T - tapping
S - slap
P - pop
< - fade in
^ - brush up
v - brush down
Login or Register to remove this ad.

1 comment on Ojiisan

thanks to kiku for editing

thanks to kiku for editing this one!