Ads

Free Time (Contact) Guitar Tab

Submitted: Mar 08, 2012 by Lemoncobbler

5
Average: 5 (1 vote)
Download | Listen
Game: Contact
Composer(s): Masafumi Takada, Jun Fukuda
Style: Arrangement, Fingerstyle

AutoScroll: Slow | Medium | Fast
Free Time
Contact
Composed by Masafumi Takada and Jun Fukuda
Tabbed by lemon cobbler

Pay attention to tuning!~

      E  E  E  E  Q       Q    Q    Q       H.              H.            
E ||-----3--2-----0----|-----------------|---------------|---------------|
B ||--1--------3-------|--0---------3----|--0------------|---------------|
F#||-------------------|-------3---------|---------------|---------------|
D ||-------------------|-----------------|---------------|---------------|
A ||-------------------|-----------------|--4------------|---------------|
C#||-------------------|-----------------|--5------------|---------------|


  E  E  E  E  E  E     E  E  E  E  E  E     E  E  E  E  E  E   
--------------------|--------------------|--------------------|
--2--------------2--|--2-----0-----------|--------------------|
--------0-----------|--------0-----0-----|--------2-----------|
--------------2-----|--------------------|--2-----------2-----|
-----0-----0-----0--|-----0-----0-----0--|-----4-----4-----4--|
--1-----------1-----|--1-----------1-----|--0-----------0-----|


  E  E  E  E  E  E     E  E  E  E  E  E     E  E  E  E  E  E   
--------------------|--------------------|--------------2--L--|
--------------------|--2-----------L--2--|--2-----0-----------|
--3--L--2--------L--|--------0-----------|--------0-----------|
--------------2-----|--------------2-----|--------------------|
-----4-----4-----4--|-----0-----0-----0--|-----0-----0-----0--|
--0-----------0-----|--1-----------1-----|--1-----------1-----|


  E  E  E  E  E  E     E  E  E  E  E  E     E  E  E  E  E  E   
--2--------------L--|--0--------------L--|--------------------|
--------------------|--------------------|--2--------------2--|
--------2-----------|--------2-----------|--------0-----------|
--------------2-----|--------------2-----|--------------2-----|
-----4-----4-----4--|-----4-----4-----4--|-----0-----0-----0--|
--0-----------0-----|--0-----------0-----|--1-----------1-----|


  E  E  E  E  E  E     E  E  E  E  E  E     E  E  E  E  E  E   
--------------------|--------------------|--------------------|
--2-----0-----------|--------------------|-----------------0--|
--------0-----0-----|--------2-----------|--3--L--2--------L--|
--------------------|--2-----------2-----|--------------------|
-----0-----0-----0--|-----4-----4-----4--|-----4-----4-----4--|
--1-----------1-----|--0-----------0-----|--0-----------0-----|


  E  E  E  E  E  E     E  E  E  E  E  E     E  E  E  E  E  E   
--------------------|--2-----------------|--5--------------L--|
--2-----------------|--------------------|--------------------|
-----------1--------|-----------1--------|--------------------|
--------1-----1-----|--------1-----1-----|--------0-----------|
-----0-----------0--|-----0-----------0--|-----0-----0-----0--|
--2-----------2-----|--2-----------2-----|--1-----------1-----|


  E  E  E  E  E  E       E  E  E  E  E  E     E  E  E  E  E  E   
--4--------------L--||---------------------|--------------------|
--------------------||---0--------------L--|--------------------|
--------------------||*--------0-----------|--3--L--0-----------|
--------2-----------||*--------------------|--------------------|
-----2-----2-----2--||------0-----0-----0--|-----0-----0-----0--|
--3-----------3-----||---1-----------1-----|--1-----------1-----|


  E  E  E  E  E  E     E  E  E  E  E  E     E  E  E  E  E  E   
--------------------|--------------------|--------------------|
--------------0-----|--------------------|--0--------------L--|
--------2--3-----2--|--3--L--2--------L--|--------0-----------|
--------------------|--------------2-----|--------------------|
-----4-----4-----4--|-----------------4--|-----0-----0-----0--|
--0-----------0-----|--0-----------0-----|--1-----------1-----|


  E  E  E  E  E  E     E  E  E  E  E  E     E  E  E  E  E  E   
--------------------|-----------0--------|--------------------|
--------------------|--------------0-----|--------0-----------|
--3--L--0-----------|--------3--------3--|--2--3-----3--2-----|
--------------------|--------------------|-----------------2--|
-----0-----0-----0--|-----4-----4-----4--|--------------------|
--1-----------1-----|--0-----------0-----|--0-----------0-----|


  E  E  E  E  E  E     E  E  E  E  E  E     E  E  E  E  E  E   
--------------------|--------------------|--------------------|
--0--------------L--|--------------0--2--|--3-----------------|
--------0-----------|--3--L--0--3--------|--------2--------2--|
--------------------|--------------------|--------------------|
-----0-----0-----0--|-----0-----0-----0--|-----4-----4-----4--|
--1-----------1-----|--1-----------1-----|--0-----------0-----|


  E  E  E  E  E  E     E  E  E  E  E  E     E  E  E  E  E  E   
-----------------2--|--2--------------L--|--2-----------4--L--|
--3--2--3--0--3-----|--------------------|--------------------|
--------------------|-----------1--------|-----------1--------|
--------------------|--------1-----1-----|--------1-----1-----|
--------------------|-----0-----------0--|-----0-----------0--|
--0-----------0-----|--2-----------------|--2-----------------|


  E  E  E  E  E  E     E  E  E  E  E  E     
--5--------------L--|--4--------------L---||
--------------------|---------------------||
--------------------|--------------------*||
--------0-----------|--------2-----------*||
-----0-----0-----0--|-----2-----2-----2---||
--1-----------1-----|--3-----------3------||




Duration Legend
---------------
W - whole
H - half
Q - quarter
E - 8th
S - 16th
T - 32nd
X - 64th
. - note dotted
|-n-|  - n-tuplets


Tablature Legend
----------------
L - tied note
x - dead note
g - grace note
(n) - ghost note
> - accentuded note
NH - natural harmonic
AH - artificial harmonic
TH - tapped harmonic
SH - semi harmonic
PH - pitch harmonic
h - hammer on
p - pull off
b - bend
br - bendRelease
pb - preBend
pbr - preBendRelease
brb - bendReleaseBend
\n/ - tremolo bar dip
\n - tremolo bar dive
-/n - tremolo bar Release up
/n\ - tremolo bar inverted dip
/n - tremolo bar return
-\n - tremolo bar Release down
S - shift slide
s - legato slide
/ -  slide into from below or out of upwards
\ -  slide into from above or out of downwards
~ - vibrato
W - wide vibrato
tr - trill
TP - tremolo picking
T - tapping
S - slap
P - pop
< - fade in
^ - brush up
v - brush down
Login or Register to remove this ad.

1 comment on Free Time

Amazing Tab

5

The tuning may be mildly annoying, but certainly better than playing the notes in standard. Very good job - we need more music from Contact!