Login or Register to remove this ad.

Nottinghamshire (Conquests of the Longbow: The Legend of Robin Hood) Guitar Tab

Submitted: Apr 23, 2009 by Kabukibear (Last updated: Nov 27, 2009)

5
Average: 5 (2 votes)
Download | Listen
Game: Conquests of the Longbow: The Legend of Robin Hood
Composer(s): Mark Seibert
Style: Arrangement, Fingerstyle

AutoScroll: Slow | Medium | Fast
Nottinghamshire                               
~Conquests of the Longbow: The Legend of Robin Hood~
Composed by: Mark Seibert
Arranged by: Justin Lincoln

Drop D Tuning 

Slowly

               ^                    ^                 ^                   
     Q    Q    E  E       Q    Q    E  E     H        E  E     Q    Q     
E||------------0--3--||---2----0-------0--|-----------0--3--|--5----2----|
B||------------0-----||-------------3-----|--0--------0-----|------------|
G||------------0-----||*------------0-----|-----------0-----|------------|
D||------------------||*--0---------------|--4--------------|-------0----|
A||------------------||-------------------|--2--------------|--3---------|
D||------------2-----||-------------5-----|-----------2-----|------------|


            ^                  ^                 ^                   
  Q    Q    E  E     Q    Q    E  E     H        E  E     Q    Q     
--0---------0--3--|--2----0-------0--|-----------0--3--|--5----2----|
------------0-----|------------3-----|--0--------0-----|------------|
-------0----0-----|------------0-----|-----------0-----|------------|
--2---------------|--0---------------|--4--------------|-------0----|
------------------|------------------|--2--------------|--3---------|
--2---------2-----|------------5-----|-----------2-----|------------|

                     V -------------                       II-------------
  Q    Q    E  E     Q    E  E  E  E     Q    Q    E  E     Q    Q    E  E   
--0---------0--3--|--7----------5-----|------------0--2--|--3---------2-----|
------------------|----------------8--|--7---------------|---------------5--|
------------------|-------7-----------|------------------|------------------|
--2---------------|-------------------|--0---------------|-------2----------|
------------------|-------------------|------------------|------------------|
-------2----------|--5-------5--------|-------0----------|--2---------------|


  ----------,      ^                  ^                 ^                
  Q    H           E  E  Q    Q       E  E  H           E  E  Q    Q     
----------------|--0--3--2----0----|-----0-----------|--0--3--5----2----|
--4-------------|--0---------------|--3-----0--------|--0----------0----|
-------4--------|--0---------------|--0--------------|--0-----5---------|
----------------|--------0---------|--------4--------|------------------|
--2-------------|------------------|--------2--------|--------0----2----|
----------------|--2---------------|--5--------------|--2---------------|

  1st Ending---------,    2nd Ending------
  ^            ^          ^                  
  H.           E  E       W                  
--0------------0--3---||--0----------------||
--0------------0------||--0----------------||
--0------------0-----*||--0----------------||
---------------------*||-------------------||
----------------------||-------------------||
--2------------2------||--2----------------||




Duration Legend
---------------
W - whole
H - half
Q - quarter
E - 8th
S - 16th
T - 32nd
X - 64th
. - note dotted
|-n-|  - n-tuplets


Tablature Legend
----------------
L - tied note
^ - brush up
Login or Register to remove this ad.

1 comment on Nottinghamshire

amazing game

I can't believe it, this was one the very first games I ever played, probably about 15 years ago. I thought it was terrifying and thrilling. You've inspired me to reinstall it a play it again, I just hope I can get it work. Maybe I'll even whip up an arrangement

Anyway, thanks a bajillion, kabukibear. And awesome arrangement, as usual.