Windy (Conker's Bad Fur Day) Guitar Tab

Submitted: Apr 08, 2012 by LynyrdSkynyrd4

5
Average: 5 (2 votes)
Download | Listen
Game: Conker's Bad Fur Day
Composer(s): Robin Beanland
Style: Alternate picking, Transcription

This song is also called Overworld

AutoScroll: Slow | Medium | Fast
 h - hammer on
 p - pull off
 / - slide
 



e|---5-----5---------------------------------------------------
B|---5-----5---------------------------------------------------
G|---6-----6-----------------------------9h11--9---------------
D|7-----7-------------7-10-9-7------9h11---------11p9--11----10
A|----------------8h9----------------------------------12----11
E|-------------------------------------------------------------

  ----------------------------------------------------------
  -10------10-----------------------10------10--------------
  ----9h11-----11-------9h11p9---------9h11----11p9--12-11-9
  ----------------10h11-------------------------------------
  ----------------------------------------------------------
  ----------------------------------------------------------

  -------------------------------------------------------
  ----10----10--------10-10------------12--------12------
  -11----11-----10h11------------12h13-----12h13----11---
  -----------------------------------------------------14
  -------------------------------------------------------
  -------------------------------------------------------

  ------------------------------------------------------------------
  -----------10------10----------------------10------10------9-8-9--
  ------9h11----9h11----11-------9h11p9---------9h11----11p9-------9
  -10h11-------------------10h11------------------------------------
  ------------------------------------------------------------------
  ------------------------------------------------------------------

  -------------------------------------12------------
  ----10----10--12-13----10------13h14---------------
  -11----11-----------11------------------14p11----14
  ----------------------------------------------14---
  ---------------------------------------------------
  ---------------------------------------------------

  -------------------------------------------------
  -------------------------------------------------
  -------------------------------------------------
  -----------4-------------------------------------
  -0--/5--7-----7--5--4--7-----------7h9--7--------
  -------------------------------6h7--------9--7--5

  -------------------------------------------------------------
  -------------------------------------------------------------
  -------------------------------------------------------------
  -----------4--6--7----------------------7----7-------10-10-10
  -0--/5--7-----------7--4-----------6h9-----9----7----11-11-11
  -------------------------------6h7---------------------------

  ------------------------------------------------------------
  -10------10-----------------------10------10----------9-12--
  ----9h11-----11-------9h11p9---------9h11----11p9--12------9
  ----------------10h11---------------------------------------
  ------------------------------------------------------------
  ------------------------------------------------------------

  -------------------------------------12------------
  ----10----10--12-13----10------13h14---------------
  -11----11-----------11------------------14p11----14
  ----------------------------------------------14---
  ---------------------------------------------------
  ---------------------------------------------------

  
  (0:43)
  ----------------------------------------------------
  -10--------------------------------------------------
  ----11p9---------------------------------------------
  ---------10h11--------------------------9h10h11------
  ---------------12-9h12----9-12-----9h12---------12---
  -----------------------12-------12-----------------12

  (0:47)
  --------------------------
  --------------------------
  -9--8h9-------------------
  --------11-7-------7--10-9
  --------------8h9---------
  --------------------------

  (0:50)
  ----------------------------------------------------------------8h9-------------
  -----------------------------------------------------------7h10-----10------10--
  ---------------------------------------------9---------6h9-------------9h11----9
  -----7------9------10------9------7--9-10-11----7-------------------------------
  -8h9----8h9----8h9-----8h9----8h9------------------7----------------------------
  --------------------------------------------------------------------------------

  (0:55)
  ---------8h9------12-8h9--------------12-11h12-9----------------
  ------10-----------------10----------------------10----11h12-9--
  -9h11-----------------------11-9--------------------11---------9
  ----------------------------------------------------------------
  ----------------------------------------------------------------
  ----------------------------------------------------------------

  (1:00)
  -9-------9--------8------------------------5-9-7-----7-5
  ---10------8----8-----/7--10-7-------------------5-9----
  ------9------9-----------------8-------6-9--------------
  ---------------------------------10p7-------------------
  --------------------------------------------------------
  --------------------------------------------------------

  ----------
  ----------
  -5h6------
  -----7p4--
  ---------7
  ----------

  
  (1:05)
  -5-------7-------5h7p5------7p5-----------9-8-9--------
  ----6h7-----6h7-------7p6h7-----7--4-5----------10-7---
  -----------------------------------------------------9-
  -------------------------------------------------------
  -------------------------------------------------------
  -------------------------------------------------------

  (1:09)
  ----5-------7-------5--8--8--7--5--7-------------------------
  -7-----6h7-----6h7-------------------------7-8-9-------------
  ----------------------------------------9--------9-6--9------
  -----------------------------------------------------------10
  -----------------------------------------------------------11
  -------------------------------------------------------------
 
  --------------------------------------------------------
  -10------10----------------------10------10------9-8-9--
  ----9h11----11-------9h11p9---------9h11----11p9-------9
  ---------------10h11------------------------------------
  --------------------------------------------------------
  --------------------------------------------------------

  -------------------------------------12------------
  ----10----10--12-13----10------13h14---------------
  -11----11-----------11------------------14p11----14
  ----------------------------------------------14---
  ---------------------------------------------------
  ---------------------------------------------------

  (1:24)
  -14--13--14--14---13--14--17--17--14--------------------
  --------------------------------------17--15--14--15--17
  --------------------------------------------------------
  --------------------------------------------------------
  --------------------------------------------------------
  --------------------------------------------------------

  (1:29)
  --------------------------------------------14------------
  -15--14--15--15---14--15---14--15--16---17------14--15--17
  ----------------------------------------------------------
  ----------------------------------------------------------
  ----------------------------------------------------------
  ----------------------------------------------------------

  (1:34)
  -13--14--13--14--14---13--14--17--17--14----------12--12--14--12
  ------------------------------------------13--14----------------
  ----------------------------------------------------------------
  ----------------------------------------------------------------
  ----------------------------------------------------------------
  ----------------------------------------------------------------

  (1:39)
  ----------------------------------------------15h16-19-16h17h18h19---
  -16--15--16--12---16--15--16--12---14--16--17----------------------17
  ---------------------------------------------------------------------
  ---------------------------------------------------------------------
  ---------------------------------------------------------------------
  ---------------------------------------------------------------------

  -12-8h9-----------------------------------------------------------------------
  --------10-----------10------10-----------------------10------10--------------
  -----------11p9h11------9h11-----11-------9h11p9---------9h11----11p9--12-11-9
  -------------------------------------10h11------------------------------------
  ------------------------------------------------------------------------------
  ------------------------------------------------------------------------------

  ------------------------------------------------------
  ----10----10--------10-10------------12--------12------
  -11----11-----10h11------------12h13-----12h13----11---
  -----------------------------------------------------14
  -------------------------------------------------------
  -------------------------------------------------------

  ------------------------------------------------------------------
  -----------10------10----------------------10------10------9-8-9--
  ------9h11----9h11----11-------9h11p9---------9h11----11p9-------9
  -10h11-------------------10h11------------------------------------
  ------------------------------------------------------------------
  ------------------------------------------------------------------

  -------------------------------------12------------
  ----10----10--12-13----10------13h14---------------
  -11----11-----------11------------------14p11----14
  ----------------------------------------------14---
  ---------------------------------------------------
  ---------------------------------------------------

Login or Register to remove this ad.