Don Weaso (Conker's Bad Fur Day) Guitar Tab

Submitted: Jan 02, 2012 by LOZmaster85RB (Last updated: Jan 02, 2012)

0
Download | Listen
Game: Conker's Bad Fur Day
Composer(s): Robin Beanland
Style: Transcription

AutoScroll: Slow | Medium | Fast
e------------------------------------------------------------------------------------------
B-----------10--------------------10---13—12-------10---------------10--13-12-----13---15--
G---------9---------9--10------9----------------------10---------9-------------------------
D------------------------------------------------------------------------------------------
A------------------------------------------------------------------------------------------
E------------------------------------------------------------------------------------------

e------------------------------------------------------------------------------------------
B--13-12-10---------9-----10--12-----------10-------------------10-----12--13-----12-10----
G----------------9----------------------9---------9--10------9--------------------------10-
D------------------------------------------------------------------------------------------
A------------------------------------------------------------------------------------------
E------------------------------------------------------------------------------------------

e------------------------------------------------------------------------------------------
B----10-------12-13-----12-13-15-------13--15--17------15-13-12---------10-----------------
G--9-----------------------------------------------------------------9---------------------
D------------------------------------------------------------------------------------------
A------------------------------------------------------------------------------------------
E------------------------------------------------------------------------------------------

e------------------------------------------------------------------------------------------
B-----------10--------------------10---13—12-------10---------------10--12-13-----13---15--
G---------9---------9--10------9----------------------10---------9-------------------------
D------------------------------------------------------------------------------------------
A------------------------------------------------------------------------------------------
E------------------------------------------------------------------------------------------

e------------------------------------------------------------------------------------------
B--13---------------9-----10--12-----------10-------------------10-----12--13-----12-10----
G----------------9----------------------9---------9--10------9--------------------------10-
D------------------------------------------------------------------------------------------
A------------------------------------------------------------------------------------------
E------------------------------------------------------------------------------------------

e------------------------------------------------------------------------------------------
B----10-------12-13--------13-15-------13--15--17------15-13-12---------10-----------------
G--9-----------------------------------------------------------------9---------------------
D------------------------------------------------------------------------------------------
A------------------------------------------------------------------------------------------
E------------------------------------------------------------------------------------------
Login or Register to remove this ad.

1 comment on Don Weaso

Could've Been.... Paulie....

Could've Been.... Paulie....