Ads

Title Screen (Druid) Bass/Guitar Tab

Submitted: Nov 08, 2008 by auriplane (Last updated: Apr 05, 2010)

0
Download | Listen
Game: Druid
Composer(s): David Hanlon
Style: 2 or more instruments, Transcription

AutoScroll: Slow | Medium | Fast
                  Druid - Title Screen GUITAR & BASS TAB
                          Song by David Hanlon

                 Tabbed by auriplane ([email protected])

This is the title music to the Commodore 64 game Druid.

Guitar is in drop-D tuning. 

There's a part in the middle that you can play on a second bass, or
keep it as part of the guitar.  I left it in the guitar part, but I
put a tab for it on bass at the end too, which is marked "2nd bass
part", 'cause I think it's cooler on bass :-)

Also, note the extra beat (one measure of 5/4 time) at the end of the
first ending.

                               GUITAR PART

e |--------------------------------|
B |-----(                    )-----|
G |-----( Rest for 1 measure )-----|
D |-----(                    )-----|
A |-----(                    )-----|
D |--------------------------------|

    Repeat 2x:

e |--------------------------------|--------------------------------|
B |15------15--13--15--13--15------|--------------------12--13--12--|
G |----------------------------14--|----14------14--14--------------|
D |--------------------------------|--------------------------------|
A |--------------------------------|--------------------------------|
D |--------------------------------|--------------------------------|

e |--------------------------------|--------------------------------|
B |--------------------------------|--------------------------------|
G |12------12--12------10----------|--------------------------------|
D |------------------------14--12--|----12------12--12------12------|
A |--------------------------------|--------------------------------|
D |--------------------------------|--------------------------------|

e |--------------------------------|--------------------------------|
B |15------15--13--15--13--15------|------------------------12--13--|
G |----------------------------14--|----14------14--14--------------|
D |--------------------------------|--------------------------------|
A |--------------------------------|--------------------------------|
D |--------------------------------|--------------------------------|

e |--------------------------------|--------------------------------|
B |15------------------------------|--------------------------------|
G |--------12--12--12--10----------|--------------------------------|
D |------------------------14--12--|----12--10--0---12--------------|
A |--------------------------------|--------------------------------|
D |--------------------------------|--------------------------------|

e |--------------------------------|--------------------------------|
B |--------------------------------|--------------------------------|
G |--------------------------------|--------------------------------|
D |--------------------------------|--------------------------------|
A |5-------------------------------|--------3---2-------3-----------|
D |----7-----------0-------7---5---|------------------------0-------|

e |--------------------------------|--------------------------------|
B |--------------------------------|--------15--13------------------|
G |--------------------------------|----------------14--12----------|
D |--------------------------------|------------------------14--12--|
A |5-------3---5---7---5---5---3---|5-------------------------------|
D |--------------------------------|--------------------------------|

   (1st ending)
e |--------------------------------|12------13------17------15----12|
B |15------13------------------1515|--------------------------------|
G |------------14----------14------|--------------------------------|
D |----------------15--------12----|--------------------------------|
A |--------------------------------|--------------------------------|
D |--------------------------------|--------------------------------|

e |------------12------------------|--------22--17------------------|
B |15--13--15------15--15--13--15--|------15------------------------|
G |--------------------------------|14--------------14--------------|
D |--------------------------------|----------------------1715--14--|
A |--------------------------------|--------------------------------|
D |--------------------------------|--------------------------------|

e |----------------10--------------|----------------10--------------|
B |------------------------10------|------------------------10------|
G |--------------------------------|10------------------------------|
D |12------------------------------|----12--------------------------|
A |--------------------------------|--------------------------------|
D |--------------------------------|--------------------------------|
                                    5/4
e |----------------10--------------|----------------------------------------|
B |------------------------10------|----------------------------------------|
G |10------------------------------|10--------------------------------------|
D |----12--------------------------|--------12------------------------------|
A |--------------------------------|----------------------------------------|
D |--------------------------------|----------------------------------------|

   (2nd ending)
e |--------------------------------|12------13------17------15--12--|
B |15------13------------------1515|--------------------------------|
G |------------14----------14------|--------------------------------|
D |----------------15--------12----|--------------------------------|
A |--------------------------------|--------------------------------|
D |--------------------------------|--------------------------------|

e |--------------12----------------|--------------------------------|
B |15----1315------15----1513----15|--------15----------------------|
G |--------------------------------|14------------------------------|
D |--------------------------------|----0-------12------------------|
A |--------------------------------|--------------------------------|
D |--------------------------------|--------------------------------|

                             1ST BASS PART

G |----------------|
D |----------------|
A |----------------|
E |--------10--10--|

    Repeat 2x:

G |----------------|----------10--10|----------12--12|----------------|
D |----------12--12|----------------|----------------|----------12--12|
A |----------------|8---8---8---8---|10--10--10--10--|----------------|
E |10--10--10--10--|----------------|----------------|10--10--10--10--|

G |----------------|----------10--10|----------12--12|----------------|
D |----------12--12|----------------|----------------|----------12--12|
A |----------------|8---8---8---8---|10--10--10--10--|----------------|
E |10--10--10--10--|----------------|----------------|10--10--10--10--|

G |----------------|----------14--14|----------12--12|----------------|
D |----------12--12|----------------|----------------|----------12--12|
A |----------------|12--12--12--12--|10--10--10--10--|----------------|
E |10--10--10--10--|----------------|----------------|10--10--10--10--|

   (1st ending)
G |----------------|----------14--14|----------12--12|----------------|
D |----------12--12|----------------|----------------|----------------|
A |----------------|12--12--12--12--|10--10--10--10--|----------------|
E |10--10--10--10--|----------------|----------------|10--10--10--10--|
   
                                                      5/4
G |----------------|----------------|----------------|--------------------|
D |----------------|----------------|----------------|--------------------|
A |----------------|----------------|----------------|--------------------|
E |--8-1010--------|--8-1010--------|--8-1010--------|--8-1010------------|

   (2nd ending)
G |----------------|----------14--14|----------12--12|----------------|
D |----------12--12|----------------|----------------|----------------|
A |----------------|12--12--12--12--|10--10--10--10--|----------------|
E |10--10--10--10--|----------------|----------------|10--101010------|

                             2ND BASS PART

    (Rest for 9 measures)

G |------------------------|----------------------|
D |12----------0-----------|------10-9---10-0-----|
A |---12-------------12-10-|----------------------|
E |------------------------|----------------------|

G |------------9-----------|----------------------|
D |12----10-12----12-12-10-|12--------------------|
A |------------------------|----------------------|
E |------------------------|----------------------|

    (Rest for 16 measures and repeat)


Login or Register to remove this ad.