Ads

Recent comments

Comment Posted on Submittedsort icon

a very fun piece :)

Easthaven In Peace 1 year 11 weeks ago

Best cover of the song yet

Truth and Dreams 1 year 11 weeks ago

Awesome work dude! Just discovered your other amazing skyrim arrangements.

From Past to Present 1 year 11 weeks ago

tried to figure this one out several times, absolutely love this piece.
thank you so much for putting out such a great tab for this!

Lyra's Theme 1 year 11 weeks ago

such a great tab, good work :D
melee has so many great tracks in it

Break The Targets 1 year 11 weeks ago

Would be nice if a new GameTabs website was created, with every tab and all. Ofc, that probably wouldn't be easy to do.

K.K. Ballad 1 year 11 weeks ago

and this is literally the only way i can contact anyone here. could you acrchard just do me a solid and delete this account and ill just make a new one

K.K. Ballad 1 year 11 weeks ago

If I can play this half as good as the midi file, panties will drop.

also, I feel like this was a huge inspiration for writing your song ray of light as they share a lot of common ground and key.

File Select 1 year 11 weeks ago

Thx for the reformat. If 4 bars is too wide I'll start doing 2 from now on for practicality's sake. Cheers!

The Elemental Stars 1 year 11 weeks ago

Cool one

A Place I Don't Know 1 year 12 weeks ago

the first time i played this i didn't really like it. i think i was trying to hard to stick to the notation but playing it like how i remember it makes it really enjoyable. nice arrangement, thanks

When She Loved Me 1 year 12 weeks ago

amazing

1,000 Words 1 year 12 weeks ago

this is really fun to play, thanks

Scarlet Forest 1 year 12 weeks ago

great one!

The King Lost in Time 1 year 12 weeks ago

fun

Hoshi Furu Yoru no Ristorante (Solo Guitar) 1 year 12 weeks ago

they're optional notes

More Gun (Version 1) 1 year 12 weeks ago

Below I have included a version which may be useful to you.
Thanks to JudgeXii

(Previously this was a suggestion to do so, but why should I ask someone to do more work?)

The Elemental Stars 1 year 12 weeks ago
"The Elemental Stars" - Golden Sun
Composer: Motoi Sakuraba
Arrangement : judgexii
Tuning : Standard EADGBe
BPM : 72 (6/8, then 5/8 Time)

   Intro (6/8 Time)
   |--3--|   |--3---|
e--7------------------------------------------||
B--------10--8--7-----------------------------||
G-----9--9------7---9-------------------------||
D-----9------9------9-------------------------||
A--7------------------------------------------||
E---------------------------------------------|| x4

   Main Score (6/8 Time)
   |---3---|   |--3--|                           |---3---|   |---3---|                      
||---------------------------------------------|---------------------------------------------|
||----------10--8--7---------------------------|--7--(7)------8---7--------------------------|
||--9--(9)---------7--9------------------------|----------9---7--(7)--7----------------------|
||------9-------9-----9------------------------|------9--------------------------------------|
||--7------------------------------------------|--7------------------------------------------|
||---------------------------------------------|---------------------------------------------|

   |---3---|   |---3--|                          |--3--|   |--3--|
|---------------------------------------------|--7------------------------------------------|
|----------10--8---7--------------------------|--------10--8--7-----------------------------|
|----7-----9-------7--9-----------------------|-----9--9------7--9--------------------------|
|--9---9------(9)-----9-----------------------|-----9------9-----9--------------------------|
|--7------------------------------------------|--7------------------------------------------|
|---------------------------------------------|---------------------------------------------|

   |---3---|   |---3--|                          |-----3--|   |---3---|
|--7--(7)------10--9--------------------------|--------7------12--10--9---------------------|
|----------10--8---7--10----------------------|--8h10---------8---7-------------------------|
|------9---9-------7--9-----------------------|--------9--9-------7---9---------------------|
|------9-------9------9-----------------------|--------9------9-------9---------------------|
|--7------------------------------------------|--7------------------------------------------|
|---------------------------------------------|---------------------------------------------|

   |--3---|        |--3---|                      |--3--|   |--3---|
|--10----(10)--9p8p7-----(7)------------------|--7------------------------------------------|
|---------10-------8--7-----------------------|--------10--8--7-----------------------------|
|-----9---9-----------7---9-------------------|-----9--9------7---9-------------------------|
|-----9------------9------9-------------------|-----9------9------9-------------------------|
|--7------------------------------------------|--7------------------------------------------|
|---------------------------------------------|---------------------------------------------|

   |--3---|    |--3---|                          |--3---|    |--3---|                        
|--0-----(0)----------------------------------|---------------------------------------------|
|--0-----(0)---8--7---------------------------|---------------------------------------------|
|--9-----(9)------7---9-----------------------|--------------11----(11)---------------------|
|--10----(10)--9------9-----------------------|--12----(12)--12----(12)---------------------|
|--10----(10)---------------------------------|--12----(12)--12----(12)---------------------|
|--8-----(8)----------------------------------|--10----------------(10)---------------------|

   |--3---|   |--3---|                           |--3---|    |--3---|
|--0-----(0)----------------------------------|--0-----(0)---0-----(0)----------------------|
|--0-----(0)----------------------------------|--0-----(0)---0-----(0)----------------------|
|--9-----(9)-----7---9------------------------|--9-----(9)---11----(11)---------------------|
|--9-----(9)--9------9------------------------|--10----(10)--12----(12)---------------------|
|--7-----(7)----------------------------------|--10----(10)--12----(12)---------------------|
|--0----------------(0)-----------------------|--8-----(8)---10----(10)---------------------|

   |--3---|    |----3----|                       |--3---|    |--3---|                        
|--0-----(0)----------------------------------|---------------------------------------------|
|--0-----(0)---7---(7)---8--------------------|--10----(10)---------------------------------|
|--9-----(9)---x------------------------------|--------------11----(11)---------------------|
|--10----(10)--10--(10)-----------------------|--12----(12)--12----(12)---------------------|
|--10----(10)--10--(10)-----------------------|--12----(12)--12----(12)---------------------|
|--8-----(8)----------------------------------|--10----(10)--10----(10)---------------------|

   |--3--|   |---3---|                           |--3--|   |--3--|
|--0--------(0)-------------------------------|--x------------------------------------------||
|--0--------(0)--7---8------------------------|--10-------------(10)------------------------||
|--9--------(9)--7----------------------------|--11-------------(11)------------------------||
|--9--------(9)-------------------------------|--12-------------(12)------------------------||
|--7--------(7)-------------------------------|--12-------------(12)------------------------||
|--0----------------(0)-----------------------|--0--------------(0)-------------------------||

   Second Movement (5/8 Time Ugh)
   |----3----|    |-2--|                         |----3----|    |-2---|
||---------------------------------------------|---------------------------------------------||
||--8p7--8p7--8p7--8p7--10---------------------|--8p7--8p7--8p7--8h10------------------------||
||---------------------------------------------|-----------------------7---------------------||
||---------------------------------------------|---------------------------------------------||
||---------------------------------------------|---------------------------------------------||
||---------------------------------------------|---------------------------------------------|| x2

   |--3---|    |--2---|                          |--3--|    |---2---|                        
||---------2----3------0-----------------------|--------2----3-------5-----------------------|
||-----0---------------------------------------|-----0---------------3-----------------------|
||--0-----(0)----------------------------------|---------------------------------------------|
||--2-----(2)----------------------------------|--4---------(4)------0-----------------------|
||---------------------------------------------|--5------------------------------------------|
||--0-----------------(0)----------------------|--0-----------------(0)----------------------|

   |--3---|    |--2---|                          |--3---|    |--2---|
|---------2----3------0-----------------------|---------2----3------5-----------------------|
|-----0---------------------------------------|-----0---------------3-----------------------|
|--------------0-----(0)----------------------|---------------------------------------------|
|--2-----(2)----------------------------------|--4-----(4)---0-----(0)----------------------|
|---------------------------------------------|--5------------------------------------------|
|--0-----------------(0)----------------------|--0------------------------------------------|

   |--3---|    |--2--|                           |--3---|    |--2---|                        
|---------2----3-----0------------------------|---------2----3------5-----------------------|
|-----0--------------0------------------------|-----0---------------3-----------------------|
|---------------------------------------------|--2-----(2)---0------------------------------|
|--2-----(2)----------------------------------|---------------------4-----------------------|
|--3------------------------------------------|--3-----(3)----------------------------------|
|--0------------------------------------------|--0-----------------(0)----------------------|

   |--3---|    |--2---|                          |--3---|    |--2---|
|---------2----3------0-----------------------|---------2----3------5-----------------------||
|-----0---------------------------------------|---------------------3-----------------------||
|---------------------------------------------|--0--4--------2-----(2)----------------------||
|--2-----(2)---4-----(4)----------------------|--0-----(0)---4-----(4)----------------------||
|--------------5-----(5)----------------------|---------------------------------------------||
|--0-----------------(0)----------------------|---------------------------------------------|| 
x2 then back to Intro

The Elemental Stars 1 year 12 weeks ago

I care about the trumpet solo

Ghostly Band ~ Phantom Ensemble 1 year 13 weeks ago

I appreciate that you've come up with something very relaxing and wonderful.

The King Lost in Time 1 year 13 weeks ago

Damn this is good, good job with this tab

Hyrule Castle 1 year 13 weeks ago

Nice one

Everlasting Summer 1 year 13 weeks ago

Oh, fine. I asked since i saw some fishy posts recently (which have been deleted i guess).

Lockjaw's Saga (Version 2) 1 year 13 weeks ago

nah, nothing wrong. I'm just lazy / busy. I think a couple other mods sometimes publish tabs, we've got a huge backlog on the forums to go through, too.

Lockjaw's Saga (Version 2) 1 year 13 weeks ago

Did something bad happened with the website? It's been over a week since the Latest Tabs section got an update.

Lockjaw's Saga (Version 2) 1 year 13 weeks ago

awesome man, just awesome

Save-Continue-Retry Screen 1 year 13 weeks ago

THANKS JOrDAN ;D

The Circus 1 year 14 weeks ago

Nice!!

Hippo 1 year 14 weeks ago

pretty much! while it's all eighth notes in 4/4 i'd say no notation is fine, but as soon as you start getting triplets/sixteenth notes and more mixed in frequently it definitely helps to have some tab notation

S.S. Anne 1 year 14 weeks ago

half step down for original key

Battle With True Hero 1 year 14 weeks ago

most of the songs i play on this site are those from games i've never played let alone even heard about. having duration markers in a tab is useful for when i want to play a tab the whole way through without having heard the song before. i imagine its similar to sight reading, though i can't read musical notation so i wont claim thats the case. i don't disagree that simply listening to the song before playing the tab helps, i think it makes it way easier and i encourage doing it if you struggle playing a tab.

im looking through my favorites section on this site and starting to realize that of the hundreds of tabs i have favorited on here, theres only a select few of which i know what the original song the tab is based off of sounds like. also i think its worth mentioning that i value how well a tab can be sight read, probably more than i should. when i make a tab i like to make it as clear as possible to the reader that the way it is tabbed out is the way i play it. i would like, for whoever is reading my tab to be able to recreate my vision of what i want the song im tabbing to sound like. whether the reader does that or completely changes it is up to them. also sometimes listening to the original doesn't help much cause the tab is changed from the original to the point that it could be its own song, i.e. stamen's 'Midna's Lament'. in those cases listening to the midi or even better watching a video would be the best thing to help play the tab. but theres hardly anyone recording vids now, and i think midis are dead still(?)

honestly im just a bit bummed, i feel that this site could be booming with popularity and that it has so much potential. and i would like to help with that but just don't have the motivation to do it. sorry for wall of txt

S.S. Anne 1 year 14 weeks ago

I dont understand why people think playing a tab without duration markers is difficult. do you not know the song or something????? and even if you dont know the song, just listen to it and keep practicing.

S.S. Anne 1 year 14 weeks ago

just highlighting this version is a carbon copy of an arrangement floating around the web (Songsterr for example). This arrangement is a slightly inaccurate Sungha Jung version based off of: https://www.youtube.com/watch?v=2Z603ccaj74

Main Theme 1 year 14 weeks ago

I never actually watched this show, but this song is beautiful and the arrangement is great :D

Kaze ga Soyogu Basho 1 year 14 weeks ago

I know this is 12 years later, and I am the only one to ever rate or comment, but I just wanted to say that this is fn sick.

The Pit 1 year 14 weeks ago

nice

Lost Woods 1 year 14 weeks ago

Never played the game, but that is a good tab: great song choice.

Dark Manor 1 year 14 weeks ago

AMAZING

Last Train Home 1 year 14 weeks ago

very nice

Ending 1 year 15 weeks ago

this is so beautiful.

Hang in There, Peach! 1 year 15 weeks ago

you should be on youtube

Boss Battle Theme 1 year 15 weeks ago

Suikoden has such good soundtracks

A Peaceful Mountain Village 1 year 15 weeks ago

wonderful arrangement of a beautiful song!

Btw its supposed to be played with a capo on 1 as he shows in the video, the tab just doesn't say it.

Moonlight Night Theme 1 year 15 weeks ago

so good

Stickerbrush Symphony 1 year 15 weeks ago

The fact that this only had 1 rating in all of 12 years just goes to show that old school game ost deserve more attention. this is phenomenal. thank you.

Lemele Town 1 year 15 weeks ago

nice

Berceuse 1 year 15 weeks ago

Exactly what I was looking for. Something simple but powerful and deep.

To Zanarkand 1 year 15 weeks ago

You are the true Gitaroo man!

The Legendary Theme (Acoustic) 1 year 15 weeks ago

cool stuff

Glitter Gulch Mine 1 year 15 weeks ago

Hell yes! Have wanted a tab of this for many years. Great job!

Glitter Gulch Mine 1 year 15 weeks ago