Ads

Recent comments

Comment Posted on Submittedsort icon

I didnt think my tab would have any impact. So imagine my surprise when i heard demigorgon playing your version on nylon guitar and then realizing I had a part in it. Im so glad you came across it because you gave it a life of its own. Awesome! Great job.. really

Ending 11 years 35 weeks ago

Thank you for posting this song, it sounds so good on nylon strings. Nice arrangement and nice playing. ^_^

Ending Zelda theme 11 years 35 weeks ago

I play the first of these bars with a loose barre chord on the 2nd fret. For the second bar I use the pinky to play the G on 6th string, however that's quite tricky to pull off.
The easiest way would be to omit the red note and use the ring finger for that G:

|--------------2-----|--2-----0-----------|
|--------------3-----|--0-----0-----3-----|
|--4-----------------|--2-----0-----4-----|
|--4-----------4-----|-----0--------4--0--|
|--2-----2--4--5-----|-----------0--2-----|
|-----2-----------2--|--3-----3-----------|
To Zanarkand 11 years 35 weeks ago

change fret 7 en 9 on G string to fret 3 en 5 on B string.
That would be a bit easier for people with shorter fingers.

Here We Go 11 years 35 weeks ago

Is that a digitech rp100a?

Karma (Instrumental) 11 years 35 weeks ago

Nice tab! I used to practice with the guitar part of this song, now that i see this i will make tab :D

Opening Stage 11 years 35 weeks ago

Thanks man it helps if i bar the first part idky i didnt try that. But that wierd chord is still a pain. Hopefully ill hammer it out with practise.

To Zanarkand 11 years 35 weeks ago

ken_kusanagi said

im dun mean dat ur tab is not gud..actualy i want to give it more then dat..coz its rily make me fall in love on this tab..but more then 5star should be the own by the person who compose this song..i rily wonder how could he think out this song actualy..dat rily make me crazy u knw..anyway,to be like ur skill is too gud 4me oredy kabuki..

This is by far the most ******* **** comment I have ever seen. It's really funny you make it stay as 3 stars. Yeah, the original composer of the song does deserves 6 stars or more. However, this tab deserves nothing less than 5 stars. Man, how ignorant are people these days... Just because you don't know how to play it doesn't mean it's bad. If you can't play magnificent tabs like this one, don't ******* rate it! The only way it would be bad is if it is completely wrong and disorganized. This tab is, in no way, neither of those. I realize that 3 star = good, but this is way more than that.

Anyway, good job on this kabukibear. Definitely a 5 star tab. It's extremely difficult to execute, but it is accurate. Please excuse me for flaming and using colorful language, it just makes me angry when I see total ignorance.

Radical Dreamers 11 years 35 weeks ago

How willful u are, that not the proper way to ask, no tabs for you!! :\

rose of may/ loss of me Lonlonjp version 11 years 35 weeks ago

No snails! :'(
you are awesome! :O

Auriplane and Juja - Mega Man 10 trailer song 11 years 35 weeks ago

It's a Digitech RP350.

Karma (Instrumental) 11 years 35 weeks ago

Here you go:

Capo 3


     E  E     Q    Q    Q       Q    Q     Q       Q    Q    Q       Q    Q    E  E   
E||--3--5--|--7--------------|--7---------12----|--5---------3----|--0---------0--2--|
B||--------|------------5----|-------7----10----|-------5---------|------------0-----|
G||--------|-------0---------|------------------|-----------------|-------0----------|
D||--------|-----------------|--0---------------|-----------------|--2---------------|
A||--------|-----------------|------------------|--4--------------|------------------|
E||--------|--0--------------|------------------|-----------------|------------------|


  Q    E  E  Q       E  E  E  E  Q       Q    E  E  Q       Q    Q    Q     
--3-------2--3----|--7----------------|--5----------5----|--3---------2----|
------------------|-----------0--3----|----------5-------|------------3----|
------------------|--------0-----0----|-------5----------|-------2---------|
-------2----------|-----0-------------|------------------|--0--------------|
--3---------------|-------------------|--0---------------|-----------------|
------------------|--3----------------|------------------|-----------------|


  ^                                                               ^                    
  E  E  E  E  E  E     E  E  E   E  E  E     E  E  E  E  E  E     E  E  E  E   E   E   
--0-----------------|---------------3--5--|--7-----------0-----|--7-----------12------|
--------------------|--0------------------|--------0-----0-----|--7-----7-----10------|
--0-----------0-----|---------------------|-----0-----0-----0--|-----7-----7------11--|
--------2--4-----2--|--------2s--4--------|--------------------|--0-------------------|
-----2--------------|-----2---------------|--------------------|----------------------|
--0-----------------|--0------------------|--0-----------------|----------------------|


  ^                    ^                    ^                    ^                  
  E  E  E  E  E  E     E  E  E  E  E  E     E  E  E  E  E  E     E  E  E  E  E  E   
--5-----------3-----|--0-----------0--2--|--3--------2--3-----|--7-----------------|
--2--------2--------|--0--------0--------|--1-----1-----------|--0--------0--3-----|
--------2--------2--|--0-----0-----------|-----0-----------0--|--0-----0-----0-----|
-----2--------------|-----2--------------|--------------------|-----0-----------0--|
--0-----------------|--------------------|--3-----------------|--------------------|
--------------------|--0-----------------|--------------------|--3-----------------|


  ^                                         ^                                     
  E  E  E  E  E  E     E  E  E  E  E  E     E  E  Q    Q       E  E  E  E  E  E   
--8--------7--5-----|--3-----------5-----|--2---------------|-----------0--------|
--5-----5-----------|--3-----3-----3-----|--3-----3---------|--------------0-----|
-----5-----------5--|-----2-----2-----2--|-----2------------|--------0-----------|
--------------------|--0-----------------|--0---------------|--2--------------2--|
--0-----------------|--------------------|-------------0----|-----2--------------|
--------------------|--------------------|------------------|--0-----------------|


  ^                    ^                                                            
  E  E  E  E  E  E     E  E  E  E  E  E     E  E  E  E  E  E     E  E  E  E  E  E   
--------------------|--------0-----------|--------------------|--------------------|
--0-----------0-----|--3-----3-----3-----|--0-----------------|-----------0--------|
--0-----2-----------|--2-----------2-----|-----------0--------|--2-----------2-----|
-----2-----2-----2--|--0--0-----0-----0--|--------0-----0-----|--------2-----------|
--3-----------------|--------------------|-----2-----------2--|-----3-----------0--|
--------------------|--2-----------------|--3-----------------|--5-----------------|


                       ^                                                          
  E  E  E  E  E  E     E  E  E  E  E  E     E  E  E  E  Q       E  E  E  E  Q     
--------------------|--------0-----2-----|--0----------------|--0-----------0----|
--------------------|--3-----------------|--------------1----|--------3-----1----|
--0-----------------|--2--------2--------|--------0----------|--------0----------|
--------4-----2-----|-----0-----------0--|-----2-----2-------|-----2-----2-------|
-----2-----2-----2--|--------------------|--3----------------|--3----------------|
--0-----------------|--2-----------------|-------------------|-------------------|


  T T T T T T T T T T T T T T T T T T T T T T T T  
----0-0-0---0-0-0---0-0-0---0-0-0---7-7-7---7-7-7-|
------------------0---------------0---------------|
----------0---------------0---------------0-------|
--------------------------------------------------|
--------------------------------------------------|
--0-----------------------------------------------|


  T T T T T T T T T T T T T T T T T T T T T T T T  
----7-7-7---7-7-7---5-5-5---5-5-5---7-7-7---7-7-7-|
------------------5---------------5---------------|
----------0---------------0---------------0-------|
--------------------------------------------------|
--3-----------------------------------------------|
--------------------------------------------------|


  T  T  T  T  T  T  T  T  T  T  T  T  T  T  T  T  T  T  T  T  T  T  T  T  
----10-10-10----10-10-10----12-12-12----12-12-12----10-10-10----10-10-10-|
-------------------------10----------------------10----------------------|
-------------11----------------------11----------------------11----------|
--0----------------------------------------------------------------------|
-------------------------------------------------------------------------|
-------------------------------------------------------------------------|


  T T T T T T T T T T T T T T T T T T T T T T T T  
----7-7-7---7-7-7---7-7-7---7-7-7---7-7-7---7-7-7-|
--------------------------0-----------------------|
------------------0---------------0---------------|
----------0-------------------------------0-------|
--------------------------------------------------|
--3-----------------------------------------------|


  T T T T T T T T T T T T T T T T T T T T T T T T  
----5-5-5---5-5-5---5-5-5---7-7-7---5-5-5---5-5-5-|
------------------5---------------5---------------|
----------5---------------5---------------5-------|
--------------------------------------------------|
--0-----------------------------------------------|
--------------------------------------------------|


  T T T T T T T T T T T T T T T T T T T T T T T T  
----3-3-3---3-3-3---2-2-2---2-2-2---0-0-0---0-0-0-|
------------------0---------------0---------------|
----------0---------------0---------------0-------|
--------------------------------------------------|
--------------------------------------------------|
--0-----------------------------------------------|


  T T T T T T T T T T T T T T T T T T T T T T T T  
--------------------0-0-0---0-0-0---2-2-2---2-2-2-|
----3-3-3---3-3-3---------3---------------3-------|
------------------2---------------2---------------|
----------0---------------------------------------|
--------------------------------------------------|
--2-----------------------------------------------|


  T T T T T T T T T T T T T T T T T T T T T T T T  
----0-0-0---0-0-0---0-0-0---0-0-0---0-0-0---0-0-0-|
----------------------------------1---------------|
------------------0-------------------------------|
----------2---------------2---------------2-------|
--3-----------------------------------------------|
--------------------------------------------------|


  T T T T T T T T T T T T T T T T T T T T T T T T  
----0-0-0---0-0-0---0-0-0---0-0-0---0-0-0---0-0-0-|
----------------------------------1---------------|
------------------0-------------------------------|
----------2---------------2---------------2-------|
--3-----------------------------------------------|
--------------------------------------------------|


  T T T T T T T T T T T T T T T T T T T T T T T T  
----0-0-0---0-0-0---0-0-0---0-0-0---0-0-0---0-0-0-|
--------------------------------------------------|
----------------------------------0---------------|
------------------2-------------------------------|
----------2---------------2---------------2-------|
--0-----------------------------------------------|


  T T T T T T T T T T T T T T T T E  E     Q    Q    Q       Q    Q     Q     
----0-0-0---0-0-0---0-0-0---0-0-0-3--5--|--7--------------|--7---------12----|
----------------------------------------|------------5----|-------7----10----|
----------------------------------------|-------0---------|------------------|
------------------2---------------------|-----------------|--0---------------|
----------2---------------2-------------|-----------------|------------------|
--0-------------------------------------|--0--------------|------------------|


  Q    Q    Q       Q    Q    E  E     Q    E  E  Q       E  E  E  E  Q     
--5---------3----|--0---------0--2--|--3-------2--3----|--7----------------|
-------5---------|------------0-----|------------------|-----------0--3----|
-----------------|-------0----------|------------------|--------0-----0----|
-----------------|--2---------------|-------2----------|-----0-------------|
--4--------------|------------------|--3---------------|-------------------|
-----------------|------------------|------------------|--3----------------|


  Q    E  E  Q       Q    Q    Q       E  E  H           H.             
--5----------5----|--3---------2----|--0--------------|---------------||
----------5-------|------------3----|--------0--------|---------------||
-------5----------|-------2---------|-----0-----------|---------------||
------------------|--0--------------|--2--------------|--2------------||
--0---------------|-----------------|-----------------|---------------||
------------------|-----------------|-----------------|---------------||

And midi file: Past Story
Let me know if you're able to play it (not sure with the tremolo)

Past Story 11 years 35 weeks ago

This is really sweet! Do you have a tab for this, or do i have to get it by ear?

Karma (Instrumental) 11 years 35 weeks ago

I played this by ear but Gloups made a tab for this already

http://www.gametabs.net/playstation-2/tales-of-the-abyss/intro-theme

I just played certain parts differently cause I watched a lot of the covers on YouTube and it just felt like hammer-ons were lacking in the verse. ^ ^

Karma (Instrumental) 11 years 35 weeks ago

wow, beautiful dude.. Ive been waiting for someone to make this tab :D

Splash Wave 11 years 35 weeks ago

Be creative!! it's not so hard to figure out, many people including me have already transcribe it, it's just too good to post!!

Loss of Me / Rose of May(lonlonjp version) 11 years 35 weeks ago

Haha what? That makes no sense.

Loss of Me / Rose of May(lonlonjp version) 11 years 35 weeks ago

The tabulature shown is exactly what was played on the YouTube vid. He didn't forget to post anything...

Great tab, and it's easy enough for even a beginner like me to play. Thanks! :D

Far Off Promise 11 years 35 weeks ago

I'm not sure you understand how this site works. The purpose isn't to taunt other users and feel superior to them by virtue of helping as little as possible. The requests section is there for people who actually want to help out and tab things for people :-)

rose of may/ loss of me Lonlonjp version 11 years 35 weeks ago

Guitar tab would be best... and sorry for the late update, i have no internet and i only get a chance tu enter the site when i bring my laptop to school(which is not that often),so yeah it sucks...

Village Theme 11 years 35 weeks ago

It sounds great

Town 11 years 35 weeks ago

Thank u

Erana's Peace 11 years 35 weeks ago

Pretty!!

Erana's Peace 11 years 35 weeks ago

I actually got a little teary-eyed playing this. Such a wonderful piece of music from the golden age of adventure gaming. Thanks so much :')

Erana's Peace 11 years 35 weeks ago

Hello!! ^-^

I am marking this as fulfilled. If you would like someone to make a fingerstyle arrangement too, you can mark it as unfulfilled again and leave a comment! (I tried a little bit, but I couldn't quite make a solo version. Sorry!)

http://www.gametabs.net/secret-of-mana/color-of-summer-sky

Color of the Summer Sky 11 years 35 weeks ago

it sounds really nice

Roxas' Theme 11 years 35 weeks ago

auriplane if you tried a couple of measures, could you post your wip please?

Color of the Summer Sky 11 years 35 weeks ago

Okay, it's not very good though XD

http://auriplane.net/colorarrange.gp5

Color of the Summer Sky 11 years 35 weeks ago

You know, this would be great for 3 classical guitars, one for the bass, one for the melody and one for the chords

Color of the Summer Sky 11 years 35 weeks ago

This game is called Final Fantasy Legend 2 in English, that's what the other tabs are under. And "SaGa 2: Hihou Densetsu" is the actual Japanese title.

SaGa2 Battle Theme 11 years 35 weeks ago

I also want to note that if you're into recording music, this is a viable option to programming drums. It's what I did on my bands new cd and I haven't noticed a single person to be able to tell that it's programmed.

first, program drums realistically in GP4-5 and then export the midi. Import the midi on a channel with superior drummer/ez drummer and you're set. Just play with the mix a bit and eq to your liking. try to eq out the rediculous spiking that the samples have, compress and go. :)

How to add drums to your tabs in GP5 or Tuxguitar 11 years 34 weeks ago

at once with a pick in hand is difficult for you, there's a serious problem there.

Magus Battle Theme 11 years 34 weeks ago

fecking awesome

Eyes On Me 11 years 34 weeks ago

Thanks for picking this tune, the bass+melody part is great.

I wanted to expand that part and change it a bit, but it got too big to put the in the comments here, so I make a separate tab. Hope you don't mind.

Light World Dungeon 11 years 34 weeks ago

Woah weird, I'll tab this one just 'cause of the rhythm :-)

Tazamul Mines 11 years 34 weeks ago

Here you are!! That was fun :D

http://www.gametabs.net/pitfall-mayan-adventures/tazamul-mines

Tazamul Mines 11 years 34 weeks ago

Man, talk about AWESOME. It is great!

Time's Scar 11 years 34 weeks ago

Do you think maybe you could re-format it a bit wider? ^-^;

Time's Scar 11 years 34 weeks ago

Here's a link to download the mp3:

http://auriplane.net/protomaster2.mp3

I meant to put it in the video description, but I accidentally posted it as a comment.

Auriplane and Juja - Arris Dome 11 years 34 weeks ago

Juja, when are you going to record cornelia from the snes star fox?

Auriplane and Juja - Arris Dome 11 years 34 weeks ago

Brilliant tab. Thank you. Do you have any plans for more Katamari stuff?

Ka-ta-ma-ri-da-ma-a-shiiiiii!

Dan Don Fuga 11 years 34 weeks ago

Not really, those Katamari songs don't really lend themselves to guitar arrangements very easily. Lots of funky synths and electronics. Still, who knows.

Dan Don Fuga 11 years 34 weeks ago

I remember the countless hours spent playing this game...I think I still have it collecting dust somewhere around here. Thnx for the tab.

Fatalize 11 years 34 weeks ago

very good tab!

Pallet Town 11 years 34 weeks ago

Idd he s a great guitarist !

Corridors of Time (Maruchan) 11 years 34 weeks ago

u rock

Erana's Peace 11 years 34 weeks ago

Love it man, I dig it with a capo on 2 as well..

Eternity: Memory of Lightwaves 11 years 34 weeks ago

RedFox said

Be creative!! it's not so hard to figure out, many people have already transcribe it, it's just too good to post!!

Loss of Me / Rose of May(lonlonjp version) 11 years 34 weeks ago

Still doesn't make sense when you repeat it.

Loss of Me / Rose of May(lonlonjp version) 11 years 34 weeks ago

RedFox said

RedFox said

Be creative!! it's not so hard to figure out, many people have already transcribe it, it's just too good to post!!

1266282140731.jpg

Loss of Me / Rose of May(lonlonjp version) 11 years 34 weeks ago